Guitar Tabs, Chords and Lyrics
Server problems seems to be fixed. Chordie has been experiencing problems with songs disappearing. These issues now seems to be fixed, but still verifying the fix. If you find anything strange, please email admin@chordie.com.


Unsichtbar  Farin Urlaub

==========
(M/T:Urlaub)
Anm.: Standardstimmung (E-A-D-G-h-e)
D h A A2 Dj7 f# E7
 
 1:-2-|-2-|-0-|-0-|-2-|-2-|-0-|
 2:-3-|-3-|-2-|-0-|-2-|-2-|-3-|
 3:-2-|-4-|-2-|-2-|-2-|-2-|-1-|
 4:-0-|-4-|-2-|-2-|-0-|-4-|-2-|
 5:---|-2-|-0-|-0-|-0-|-4-|-2-|
 6:---|---|---|---|---|-2-|-0-|

Intro:
D Dj7 D Dj7 D h D h
(Fill1)
Fill1: (wird von einer 2.Git. im Hintergrund gespielt)
[Dj7] [D]  
 
 1:--------------------------------|--|
 2:--------------------------------|--|
 3:--------------------------------|--|
 4:-5-5-5-5-5-5-5-5-4-4-4-4-2-2-2-2|0-|
 5:--------------------------------|--|
 6:--------------------------------|--|

1.Strophe:
D h D
Du stehst grade mal sechs Meter oder so von mir entfernt,
h D
und ich hab aus meinen Fehlern leider wieder nichts gelernt.
h D
Wenn ich in Deine Richtung gucke, wird mir wieder klar:
h
ich bin unsichtbaaar.
Refrain:
A A2 Dj7 D f#
Und ich kann es nicht begreifen, ich kann es nicht verstehen,
und ich sag mir immer [Dj7]wieder: so [D]kann's nicht weiter[A]gehen.
A2 Dj7 D f#
Ich warte auf ein Wunder und solange bleib ich hier.
Ich warte auf ein [Dj7]Lächeln, einen B[E7]lick von [A]Dir[A2]...[A] [A2]
2.Strophe:
D h D
Bin ich wirklich so daneben, dass Du mich noch nicht mal siehst?
h D
Oder ist das Dein Programm, was Du mit jedem Mann abziehst?
h D
Ich kann nichts dagegen machen, es ist traurig, aber wahr:
h
ich bin unsichtbaaar.
Refrain:
A A2 Dj7 D f#
Und ich mach mich hier zum Affen, ich mach mich hier zum Heinz.
Ist das jetzt etwa [Dj7]die berühmte [D]Leichtigkeit des [A]Seins?
A2 Dj7 D f#
Und ich warte auf ein Wunder, und solange bleib ich hier.
Ich warte auf ein [Dj7]Zeichen, auf einen [E7]Blick von [A]Dir...
Solo: (4mal)
[A] [A2] [A] [A2]  
 
 1:-------------------------------|-------------------------------|
 2:-------------------------------|-------------------------------|
 3:-------------------------------|-------------------------------|
 4:-------------------------------|-------------------------------|
 5:-8---8---8--8-8/6--6-6---6-6-6-|-5---5---5--5-5/6--6-6---6-6-6-|
 6:-------------------------------|-------------------------------|

[D] [Dj7] [D] [Dj7]  
 
 1:-------------------------------|-------------------------------|
 2:-------------------------------|-------------------------------|
 3:-------------------------------|-------------------------------|
 4:-------------------------------|-------------------------------|
 5:-8---8---8--8-8/6--6-6---6-6-6-|-5---5---5--5-5/6--6-6---6-6-6-|
 6:-------------------------------|-------------------------------|

Refrain:
A A2 Dj7 D f#
Und ich will es nicht begreifen, ich werd's niemals akzeptieren,
und solang Du mich nicht [Dj7]wahrnimmst, hab [D]ich nichts zu ver[A]lieren.
A2 Dj7 D f#
Ich warte auf ein Wunder und solange bleib ich hier.
Ich warte auf ein [Dj7]Lächeln, auf einen [E7]Blick von von [A]Dir,
auf [A2]einen Blick von [A]Dir,
auf [A2]einen Blick von [A]Dir.

Important: The song above is NOT stored on the Chordie server. The original song is hosted at www.guitaretab.com. Chordie works as a search engine and provides on-the-fly formatting. Chordie does not index songs against artists'/composers' will. To remove this song please click here.

Text color:
Chord color:
Chord grids: 
Font size:    
Page size: 

A A2 D E7
Rate #2 of 3 versions

Jango Player

Login - add to songbook

SHARE PAGE  



You need to log in to post comments