Guitar Tabs, Chords and Lyrics
Server problems seems to be fixed. Chordie has been experiencing problems with songs disappearing. These issues now seems to be fixed, but still verifying the fix. If you find anything strange, please email admin@chordie.com.


Dusche  Farin Urlaub

======
(M/T: Urlaub)
Intro
[a] [F] [a] [F] [a] [F]  
 
 1:--------------------------------------------------------------------|
 2:------------------------------4-4-4-4-4-4-5-5-5-5-------5-5-5-5-5-5-|
 3:--------------------------------------------------------------------|
 4:-7-7---3-3---7-7---3-3---7-7-----------------------3-3--------------|
 5:-7-7---3-3---7-7---3-3---7-7-----------------------3-3--------------|
 6:-5-5---1-1---5-5---1-1---5-5-----------------------1-1--------------|

[a] [F]  
 
 1:----------------------------------------------------------------|
 2:-6-6-6-6-------4-4-4-4-4-4-5-5-5-5------5-5-5-5-5-5-5-5-6-6-6-6-|
 3:----------------------------------------------------------------|
 4:----------7-7-----------------------3-3-------------------------|
 5:----------7-7-----------------------3-3-------------------------|
 6:----------5-5-----------------------1-1-------------------------|

[a] [F] [a]  
 
 1:---------------------------------------------------------------|
 2:---------------------------------------------------------------|
 3:-----2-2-2-2-2-2-2-2-5-2-2-0------2-2-2-2-2-2-2-2-2-2-2-0------|
 4:-7-7--------------------------3-3--------------------------7-7-|
 5:-7-7--------------------------3-3--------------------------7-7-|
 6:-5-5--------------------------1-1--------------------------5-5-|

[F] [a]  
 
 1:------------------------------------------------------------|
 2:------------------------------------------------------------|
 3:-2-2-2-2-2-2-2-2-5-2-2-0------2-2-2-2-2-2-2-2-2-2-2-2-5-2-5-|
 4:--------------------------3-3-------------------------------|
 5:--------------------------3-3-------------------------------|
 6:--------------------------1-1-------------------------------|

1. Strophe
[a] Komm mir nicht zu nahe, [F] sieh mich nicht so an.
[a] Bleib im Hellen sitzen, [F] da wo ich dich sehen kann.
[a] Es begann mit meinem Fahrrad, [F] diesem elend falschen Stück.
[a] Ich trat in die Pedale [F]und mein Fahrrad trat zurück.
[a] Als ich dann in die Wohnung kam, hab [F]ich noch nichts geahnt,
Doch die [a]Fußmatten und die Schallplatten
Und die [F]Krawatten hatten ein Attentat ge[E]plant.
Refrain
Und ich [a]schlafe in der Dusche, weil die [C]Dusche zu mir hält.
Sie ist der [F]einzige Freund, der ich noch [G]habe auf der Welt.
Ja, ich [a]schlafe in der Dusche, denn die [C]Dusche ist normal.
d E Riff 1
Diese Rebellion der Haushaltsgegenstände ist ziemlich brutal.
Riff 1
[a] [F]  
 
 1:----------------------------------------------------|
 2:------4-4-4-4-4-4-5-5-5-5-------5-5-5-5-5-5-6-6-6-6-|
 3:----------------------------------------------------|
 4:-7-7-----------------------3-3----------------------|
 5:-7-7-----------------------3-3----------------------|
 6:-5-5-----------------------1-1----------------------|

[a] [F]  
 
 1:-------------------------------------------------------|
 2:------4-4-4-4-4-4-5-5-5-5------5-5-5-5-5-5-5-5-6-6-6-6-|
 3:-------------------------------------------------------|
 4:-7-7-----------------------3-3-------------------------|
 5:-7-7-----------------------3-3-------------------------|
 6:-5-5-----------------------1-1-------------------------|

2. Strophe
Wenn [a]Tassen in Massen sich [F]einfach fallen lassen,
wenn [a]Scheren sich wehren und [F]dir den Krieg erklären.
(Mein, mein,) mein [a]Kühlschrank hasst mich sowieso, er [F]ist paranoid.
Doch als mein [a]Bettbezug mich beißen wollte,
[F]Wusste ich: Ich brauche Dyna[E]mit!
Refrain
Und ich [a]schlafe in der Dusche, weil die [C]Dusche zu mir hält.
Sie ist der [F]einzige Freund, den ich noch [G]habe auf der Welt.
Ja, ich [a]schlafe in der Dusche, denn die [C]Dusche ist normal.
Diese [d]Rebellion der Haushaltsgegen[E]stände ist fatal.
Und ich [a]weiß, sie wollen mich kriegen und sie [C]sind hinter mir her,
Aber [F]ich bin vorbereitet, ja, ich [G]mach es ihnen schwer.
Man muss [a]immer auf der Hut sein, man weiß [C]nie, was so passiert,
Wenn ein [d]durchgedrehter Haushalt gegen [E]einen revoltiert.
Gestern [a]Morgen flog der Toaster mir ganz [C]plötzlich um die Ohren.
Ich weiß: [F]Die verdammte Küche hat sich [G]gegen mich verschworen.
Doch ich [a]werde sie besiegen, ich [C]habe einen Plan
Und wenn es [d]sein muss, zünde ich die [E]ganze Bude an.
Sie sollen [a]brennen! Sie [C]sollen brennen! [F] In der Hölle!
[G]Stirb! Stirb, Fernseher, [a]stirb! [C] Stirb![d] [E]
Outro
[a] [C] [F] [G] [a] [C] [d] [E]  
[a] [C] [F] [G] [a] [C] [d] [E] 

Important: The song above is NOT stored on the Chordie server. The original song is hosted at www.guitaretab.com. Chordie works as a search engine and provides on-the-fly formatting. Chordie does not index songs against artists'/composers' will. To remove this song please click here.

Text color:
Chord color:
Chord grids: 
Font size:    
Page size: 

C E F G
Rate #1 of 2 versions

Jango Player

Login - add to songbook

SHARE PAGE  




You need to log in to post comments