Guitar Tabs, Chords and Lyrics
Server problems seems to be fixed. Chordie has been experiencing problems with songs disappearing. These issues now seems to be fixed, but still verifying the fix. If you find anything strange, please email admin@chordie.com.


Zero Signal  Fear Factory

As recorded by Fear Factory
(From the 1995 Album DEMANUFACTURE)
Transcribed by erikthestupid@hotmail.com
Words by Burton C Bell Music by Fear Factory
Gtr I (B E A D F# B) - 'Dino'
Gtr II (B E A D F# B) - 'Synth'
Intro
Q=180
[E5]  
[4/4] Gtr I
W W W W 4x
 
 ||-----------|------------|------------|---------||
 ||o----------|------------|------------|--------o||
 ||-----------|------------|------------|---------||
 ||--2--------|------------|------------|---------||
 ||o-2--------|------------|------------|--------o||
 ||--0--------|------------|------------|---------||

|
| Gtr II
| W +W +W +W 4x
 
 ||-----------|------------|------------|---------||
 ||o----------|------------|------------|--------o||
 ||-----------|------------|------------|---------||
 ||--2--------|-(2)--------|-(2)--------|-(2)-----||
 ||o-2--------|-(2)--------|-(2)--------|-(2)----o||
 ||--0--------|-(0)--------|-(0)--------|-(0)-----||

[E5] [B5] [A5] [D5]  
 
 PM------------------------------------------------------------------|

[E] [E] [E] [E] [E] [E] [E] [E] [E] [E] [E] [E] [E] [E] [E] [E] [E] [E] [E] [E] [E] [E] [E] [E] [E] [E] [E] [E] [E] [E] [E] [E]  
 
 |-----------------|-----------------|-----------------|------------------|
 |-----------------|-----------------|-----------------|------------------|
 |-----------------|-----------------|-----------------|------------------|
 |-----------------|-----------------|-----------------|------------------|
 |-----------------|-----------------|-----------------|------------------|
 |-2-2-2-2-2-2-2-2-|-2-2-2-2-2-2-2-2-|-2-2-2-2-2-2-2-2-|-2-2-2-2-2-2-2-2--|

|
| W W W W
 
 |-----------------|-----------------|-----------------|------------------|
 |-5---------------|-----------------|-----------------|-3----------------|
 |-4---------------|-4---------------|-2---------------|-2----------------|
 |-2---------------|-4---------------|-2---------------|-0----------------|
 |-----------------|-2---------------|-0---------------|------------------|
 |-----------------|-----------------|-----------------|------------------|

[E5] [D5] [C#5] [D5]  
 
 PM------------------------------------------------------------------|

[E] [E] [E] [E] [E] [E] [E] [E] [E] [E] [E] [E] [E] [E] [E] [E] [E] [E] [E] [E] [E] [E] [E] [E] [E] [E] [E] [E] [E] [E] [E] [E]  
 
 |-----------------|-----------------|-----------------|------------------|
 |-----------------|-----------------|-----------------|------------------|
 |-----------------|-----------------|-----------------|------------------|
 |-----------------|-----------------|-----------------|------------------|
 |-----------------|-----------------|-----------------|------------------|
 |-2-2-2-2-2-2-2-2-|-2-2-2-2-2-2-2-2-|-2-2-2-2-2-2-2-2-|-2-2-2-2-2-2-2-2--|

|
| W W W W
 
 |-----------------|-----------------|-----------------|------------------|
 |-5---------------|-3---------------|-----------------|-3----------------|
 |-4---------------|-2---------------|-6---------------|-2----------------|
 |-2---------------|-0---------------|-6---------------|-0----------------|
 |-----------------|-----------------|-4---------------|------------------|
 |-----------------|-----------------|-----------------|------------------|

[E5] [B5] [A5] [D5]  
 
 PM------------------------------------------------------------------|

[E] [E] [E] [E] [E] [E] [E] [E] [E] [E] [E] [E] [E] [E] [E] [E] [E] [E] [E] [E] [E] [E] [E] [E] [E] [E] [E] [E] [E] [E] [E] [E]  
 
 |-----------------|-----------------|-----------------|------------------|
 |-----------------|-----------------|-----------------|------------------|
 |-----------------|-----------------|-----------------|------------------|
 |-----------------|-----------------|-----------------|------------------|
 |-----------------|-----------------|-----------------|------------------|
 |-2-2-2-2-2-2-2-2-|-2-2-2-2-2-2-2-2-|-2-2-2-2-2-2-2-2-|-2-2-2-2-2-2-2-2--|

|
| W W W W
 
 |-----------------|-----------------|-----------------|------------------|
 |-5---------------|-----------------|-----------------|-3----------------|
 |-4---------------|-4---------------|-2---------------|-2----------------|
 |-2---------------|-4---------------|-2---------------|-0----------------|
 |-----------------|-2---------------|-0---------------|------------------|
 |-----------------|-----------------|-----------------|------------------|

[E5] [D5]  
 
 PM---------------------------------

[E] [E] [E] [E] [E] [E] [E] [E] [E] [E] [E] [E] [E] [E] [E] [E]  
 
 |-----------------|-----------------|
 |-----------------|-----------------|
 |-----------------|-----------------|
 |-----------------|-----------------|
 |-----------------|-----------------|
 |-2-2-2-2-2-2-2-2-|-2-2-2-2-2-2-2-2-|

|
| W W
 
 |-----------------|-----------------|
 |-5---------------|-3---------------|
 |-4---------------|-2---------------|
 |-2---------------|-0---------------|
 |-----------------|-----------------|
 |-----------------|-----------------|

[C#5] [D5]  
 
 ---------------|

E E E E E E E E S S S S S S S S S S S S S S S S
 
 |-----------------|-----------------------------------|
 |-----------------|-----------------------------------|
 |-----------------|-----------------------------------|
 |-----------------|-----------------------------------|
 |-----------------|-----------------------------------|
 |-2-2-2-2-2-2-2-2-|-2-2-2-2-2-2-2-2-2-2-2-2-2-2-2-2---|

|
| W W
 
 |-----------------|-----------------------------------|
 |-----------------|-3---------------------------------|
 |-6---------------|-2---------------------------------|
 |-6---------------|-0---------------------------------|
 |-4---------------|-----------------------------------|
 |-----------------|-----------------------------------|

Pre-Verse Verse 1
[F]  
 
 PM------------| PM-----------------

S S S S S S S S E E E E 16x E E E E E E E E 8x
 
 ||---------------------------||-||-------------------||
 ||o-------------------------o||-||o-----------------o||
 ||---------------------------||-||-------------------||
 ||---------------------------||-||-------------------||
 ||o-------------------------o||-||o-0-0-0-0-0-0-0-0-o||
 ||--1-1-1-1-1-1-1-1-0-1-0-1--||-||-------------------||

[A5]  
 
 -------------------|

S S S S S S S S E E E E 3x
 
 |-||----------------------------||
 |-||o--------------------------o||
 |-||----------------------------||
 |-||------------------------2---||
 |-||o-----------------------0--o||
 |-||--1-1-1-1-1-1-1-1-0-1-0-----||

[A5]  
 
 PM------------------------------------------------|

S S S S S S S S S S S S S S S S S S S S S S S S E E E E 3x
 
 |---------------------------------||---------------------------||
 |---------------------------------||o-------------------------o||
 |---------------------------------||---------------------------||
 |---------------------------------||------------------------2--||
 |---------------------------------||o-----------------------0-o||
 |-1-1-1-1-1-1-1-1-1-1-1-1-1-1-1-1-||--1-1-1-1-1-1-1-1-0-1-0----||
 PM----------------------------|

S S S S S S S S S S S S S S S S
 
 |------------------------------------|
 |------------------------------------|
 |------------------------------------|
 |------------------------------------|
 |------------------------------------|
 |-1-1-1-1-1-1-1-1-1-1-1-1-1-1-1-1----|

Pre-Verse
[E5] [B5] [A5] [D5]  
 
 PM------------------------------------------------------------------|

[E] [E] [E] [E] [E] [E] [E] [E] [E] [E] [E] [E] [E] [E] [E] [E] [E] [E] [E] [E] [E] [E] [E] [E] [E] [E] [E] [E] [E] [E] [E] [E]  
 
 |-----------------|-----------------|-----------------|------------------|
 |-----------------|-----------------|-----------------|------------------|
 |-----------------|-----------------|-----------------|------------------|
 |-----------------|-----------------|-----------------|------------------|
 |-----------------|-----------------|-----------------|------------------|
 |-2-2-2-2-2-2-2-2-|-2-2-2-2-2-2-2-2-|-2-2-2-2-2-2-2-2-|-2-2-2-2-2-2-2-2--|

|
| Gtr II
| W W W W
 
 |-----------------|-----------------|-----------------|------------------|
 |-5---------------|-----------------|-----------------|-3----------------|
 |-4---------------|-4---------------|-2---------------|-2----------------|
 |-2---------------|-4---------------|-2---------------|-0----------------|
 |-----------------|-2---------------|-0---------------|------------------|
 |-----------------|-----------------|-----------------|------------------|

[E5] [D5] [C#5] [D5]  
 
 PM------------------------------------------------------------------|

[E] [E] [E] [E] [E] [E] [E] [E] [E] [E] [E] [E] [E] [E] [E] [E] [E] [E] [E] [E] [E] [E] [E] [E] [E] [E] [E] [E] [E] [E] [E] [E]  
 
 |-----------------|-----------------|-----------------|------------------|
 |-----------------|-----------------|-----------------|------------------|
 |-----------------|-----------------|-----------------|------------------|
 |-----------------|-----------------|-----------------|------------------|
 |-----------------|-----------------|-----------------|------------------|
 |-2-2-2-2-2-2-2-2-|-2-2-2-2-2-2-2-2-|-2-2-2-2-2-2-2-2-|-2-2-2-2-2-2-2-2--|

|
| W W W W
 
 |-----------------|-----------------|-----------------|------------------|
 |-5---------------|-3---------------|-----------------|-3----------------|
 |-4---------------|-2---------------|-6---------------|-2----------------|
 |-2---------------|-0---------------|-6---------------|-0----------------|
 |-----------------|-----------------|-4---------------|------------------|
 |-----------------|-----------------|-----------------|------------------|

Verse 2
[A5]  
 
 PM------------| PM-------------------------------

S S S S S S S S E E E E 3x S S S S S S S S S S S S S S S S
 
 ||---------------------------||---------------------------------|
 ||o-------------------------o||---------------------------------|
 ||---------------------------||---------------------------------|
 ||------------------------2--||---------------------------------|
 ||o-----------------------0-o||---------------------------------|
 ||--1-1-1-1-1-1-1-1-0-1-0----||-1-1-1-1-1-1-1-1-1-1-1-1-1-1-1-1-|

[A5]  
 
 -----------------| PM----------------------------|

S S S S S S S S E E E E 3x S S S S S S S S S S S S S S S S
 
 ||---------------------------||------------------------------------|
 ||o-------------------------o||------------------------------------|
 ||---------------------------||------------------------------------|
 ||------------------------2--||------------------------------------|
 ||o-----------------------0-o||------------------------------------|
 ||--1-1-1-1-1-1-1-1-0-1-0----||-1-1-1-1-1-1-1-1-1-1-1-1-1-1-1-1----|

Chorus
[E5]Gtr I[B5] [A5]
 
 PM-------------------------------

W W S S S S S S S S S S S S S S S S
 
 |----------|----------|---------------------------------|
 |----------|----------|---------------------------------|
 |-9--------|-4--------|---------------------------------|
 |-9--------|-4--------|---------------------------------|
 |-7--------|-2--------|---------------------------------|
 |----------|----------|-5-5-5-5-5-5-5-5-5-5-5-5-5-5-5-5-|

|
| Gtr II
| W W W
 
 |----------|----------|---------------------------------|
 |-5--------|----------|---------------------------------|
 |-4--------|-4--------|-2-------------------------------|
 |-2--------|-4--------|-2-------------------------------|
 |----------|-2--------|-0-------------------------------|
 |----------|----------|---------------------------------|

[D5]  
 
 -------------------------------|

S S S S S S S S S S S S S S S S
 
 |-----------------------------------|
 |-----------------------------------|
 |-----------------------------------|
 |-----------------------------------|
 |-5-5-5-5-5-5-5-5-5-5-5-5-5-5-5-5---|
 |-----------------------------------|

|
| W
 
 |-----------------------------------|
 |-3---------------------------------|
 |-2---------------------------------|
 |-0---------------------------------|
 |-----------------------------------|
 |-----------------------------------|

[E5]W [D5]W [C#5]W [D5]W
 
 |----------|----------|----------|------|
 |----------|----------|----------|------|
 |-9--------|-7--------|-6--------|-7----|
 |-9--------|-7--------|-6--------|-7----|
 |-7--------|-5--------|-4--------|-5----|
 |----------|----------|----------|------|

|
| W W W W
 
 |----------|----------|----------|------|
 |-5--------|-3--------|----------|-3----|
 |-4--------|-2--------|-6--------|-2----|
 |-2--------|-0--------|-6--------|-0----|
 |----------|----------|-4--------|------|
 |----------|----------|----------|------|

[E5] [B5] [A5]  
 
 PM-------------------------------

W W S S S S S S S S S S S S S S S S
 
 |----------|----------|---------------------------------|
 |----------|----------|---------------------------------|
 |-9--------|----------|---------------------------------|
 |-9--------|-9--------|---------------------------------|
 |-7--------|-9--------|---------------------------------|
 |----------|-7--------|-5-5-5-5-5-5-5-5-5-5-5-5-5-5-5-5-|

|
| W W W
 
 |----------|----------|---------------------------------|
 |-5--------|----------|---------------------------------|
 |-4--------|-4--------|-2-------------------------------|
 |-2--------|-4--------|-2-------------------------------|
 |----------|-2--------|-0-------------------------------|
 |----------|----------|---------------------------------|

[D5]  
 
 -------------------------------|

S S S S S S S S S S S S S S S S
 
 |-----------------------------------|
 |-----------------------------------|
 |-----------------------------------|
 |-----------------------------------|
 |-5-5-5-5-5-5-5-5-5-5-5-5-5-5-5-5---|
 |-----------------------------------|

|
| W
 
 |-----------------------------------|
 |-3---------------------------------|
 |-2---------------------------------|
 |-0---------------------------------|
 |-----------------------------------|
 |-----------------------------------|

[E5]W [D5]W [C#5]W [D5]W
 
 |----------|----------|----------|------|
 |----------|----------|----------|------|
 |-9--------|-7--------|-6--------|-7----|
 |-9--------|-7--------|-6--------|-7----|
 |-7--------|-5--------|-4--------|-5----|
 |----------|----------|----------|------|

|
| W W W W
 
 |----------|----------|----------|------|
 |-5--------|-3--------|----------|-3----|
 |-4--------|-2--------|-6--------|-2----|
 |-2--------|-0--------|-6--------|-0----|
 |----------|----------|-4--------|------|
 |----------|----------|----------|------|

Interlude
 
 PM------------------| PM---------------------------

E E S S S S S E S S S E E S S S E S +S E S +S E S
 
 ||--------------------------|-----------------------------|
 ||o-------------------------|-----------------------------|
 ||--------------------------|-----------------------------|
 ||--------------------------|-----------------------------|
 ||o-----2-2-2---------------|-----------------------------|
 ||--4-4-----------4-6-6-6---|-4-5-5-5---4-(4)-4-5-(5)-4-4-|
 -----------------------------------|

E E S S S S S E S S S E E S S S E S H
 
 |-------------------------|-------------------||
 |-------------------------|------------------o||
 |-------------------------|-------------------||
 |-------------------------|-------------------||
 |-----2-2-2---------------|------------------o||
 |-4-4-----------4-6-6-6---|-4-5-5-5-4---------||
 PM---------------------------------------------------------

E E S S S S S E S S S S S E S S S S S S +S E S +S E S
 
 ||----------------------------|-------------------------------|
 ||o---------------------------|-------------------------------|
 ||----------------------------|-------------------------------|
 ||----------------------------|-------------------------------|
 ||o-----1-1-1-1-1---0-0-0-0-0-|-------------------------------|
 ||--3-3-----------3-----------|-3-4-4-4-4-4-3-(3)-3-4-(4)-3-3-|
 ---------------------------------------------------------|

E E S S S S S E S S S S S E S S S S S S +S E S +S E S
 
 |---------------------------|---------------------------------||
 |---------------------------|--------------------------------o||
 |---------------------------|---------------------------------||
 |---------------------------|---------------------------------||
 |-----1-1-1-1-1---0-0-0-0-0-|--------------------------------o||
 |-3-3-----------3-----------|-3-4-4-4-4-4-3-(3)-3-4-(4)-3-3---||

[G#5]W W [G5]W W
 
 |----------|------------|----------|--------|
 |----------|------------|----------|--------|
 |----------|------------|----------|--------|
 |-6--------|------------|-5--------|--------|
 |-6--------|------------|-5--------|--------|
 |-4--------|------------|-3--------|--------|

|
| Gtr II
| W +W W +W
 
 |----------|------------|----------|--------|
 |----------|------------|----------|--------|
 |----------|------------|----------|--------|
 |-6--------|-(6)--------|-5--------|-(5)----|
 |-6--------|-(6)--------|-5--------|-(5)----|
 |-4--------|-(4)--------|-3--------|-(3)----|

[G#5] [E5] [F#5]  
 
 PM------------|

W W W H S S S S S S S S
 
 |----------|------------|----------|-----------------------|
 |----------|------------|----------|-----------------------|
 |----------|------------|----------|-----------------------|
 |-6--------|------------|-2--------|-4---------------------|
 |-6--------|------------|-2--------|-4---------------------|
 |-4--------|------------|-0--------|-2----2-2-2-2-2-2-2-2--|

|
| W +W W W
 
 |----------|------------|----------|-----------------------|
 |----------|------------|----------|-----------------------|
 |----------|------------|----------|-----------------------|
 |-6--------|-(6)--------|-2--------|-4---------------------|
 |-6--------|-(6)--------|-2--------|-4---------------------|
 |-4--------|-(4)--------|-0--------|-2---------------------|

[G#5/EbG#5/G#5/Eb] [G#5/G#5/Eb]  
 
 PM| PM| PM PM PM PM---------------

E E E E E E E E E E E E S S S S S S S S
 
 |-----------------|---------------------------|
 |-----------------|---------------------------|
 |-----------------|---------------------------|
 |-----6-----6---6-|-----6---6-----------------|
 |-----6-----6---6-|-----6---6-6-6-6-6-6-6-6-6-|
 |-4-4---4-4---4---|--4----4-------------------|

|
| W +W
 
 |-----------------|---------------------------|
 |-----------------|---------------------------|
 |-----------------|---------------------------|
 |-6---------------|-(6)-----------------------|
 |-6---------------|-(6)-----------------------|
 |-4---------------|-(4)-----------------------|

[G5/D] [G5/DG5/D] [G5/DG5/D]  
 
 ---| PM| PM PM PM PM------------|

E E E E E E E E E E E E S S S S S S S S
 
 |-----------------|-----------------------------|
 |-----------------|-----------------------------|
 |-----------------|-----------------------------|
 |-----5-----5---5-|-----5---5-------------------|
 |-----5-----5---5-|-----5---5-5-5-5-5-5-5-5-5---|
 |-3-3---3-3---3---|--3----3---------------------|

|
| W +W
 
 |-----------------|-----------------------------|
 |-----------------|-----------------------------|
 |-----------------|-----------------------------|
 |-5---------------|-(5)-------------------------|
 |-5---------------|-(5)-------------------------|
 |-3---------------|-(3)-------------------------|

[G#5] [D#5]  
 
 PM| PM| PM PM PM PM---------------

E E E E E E E E E E E E S S S S S S S S
 
 |-----------------|---------------------------|
 |-----------------|---------------------------|
 |-----------------|---------------------------|
 |-----6-----6---6-|-----6---6-----------------|
 |-----6-----6---6-|-----6---6-6-6-6-6-6-6-6-6-|
 |-4-4---4-4---4---|--4----4-------------------|

|
| W +W
 
 |-----------------|---------------------------|
 |-----------------|---------------------------|
 |-----------------|---------------------------|
 |-6---------------|-(6)-----------------------|
 |-6---------------|-(6)-----------------------|
 |-4---------------|-(4)-----------------------|

[E5] [F#5]  
 
 ---| PM| PM PM PM PM------------|

E E E E E E E E E E E E S S S S S S S S
 
 |-----------------|---------------------------|
 |-----------------|---------------------------|
 |-----------------|---------------------------|
 |-----------------|---4---4-------------------|
 |-----7-----7---7-|---4---4-4-4-4-4-4-4-4-4---|
 |-0-0-7-0-0-7-0-7-|-2---2---------------------|

|
| W W
 
 |-----------------|---------------------------|
 |-----------------|---------------------------|
 |-----------------|---------------------------|
 |-2---------------|-4-------------------------|
 |-2---------------|-4-------------------------|
 |-0---------------|-2-------------------------|

[G#5] [D#5]  
 
 PM| PM| PM PM PM PM---------------

E E E E E E E E E E E E S S S S S S S S
 
 |-----------------|---------------------------|
 |-----------------|---------------------------|
 |-----------------|---------------------------|
 |-----6-----6---6-|-----6---6-----------------|
 |-----6-----6---6-|-----6---6-6-6-6-6-6-6-6-6-|
 |-4-4---4-4---4---|--4----4-------------------|

|
| W +W
 
 |-----------------|---------------------------|
 |-----------------|---------------------------|
 |-----------------|---------------------------|
 |-6---------------|-(6)-----------------------|
 |-6---------------|-(6)-----------------------|
 |-4---------------|-(4)-----------------------|

[G5] [D5]  
 
 ---| PM| PM PM PM PM------------|

E E E E E E E E E E E E S S S S S S S S
 
 |-----------------|-----------------------------|
 |-----------------|-----------------------------|
 |-----------------|-----------------------------|
 |-----5-----5---5-|-----5---5-------------------|
 |-----5-----5---5-|-----5---5-5-5-5-5-5-5-5-5---|
 |-3-3---3-3---3---|--3----3---------------------|

|
| W +W
 
 |-----------------|-----------------------------|
 |-----------------|-----------------------------|
 |-----------------|-----------------------------|
 |-5---------------|-(5)-------------------------|
 |-5---------------|-(5)-------------------------|
 |-3---------------|-(3)-------------------------|

[G#5] [D#5] [E5] [F#5]  
 
 PM| PM| PM PM PM PM------------|

E E E E E E E E E E E E S S S S S S S S W W
 
 |-----------------|---------------------------|----------|------|
 |-----------------|---------------------------|----------|------|
 |-----------------|---------------------------|----------|------|
 |-----6-----6---6-|-----6---6-----------------|-2--------|-4----|
 |-----6-----6---6-|-----6---6-6-6-6-6-6-6-6-6-|-2--------|-4----|
 |-4-4---4-4---4---|--4----4-------------------|-0--------|-2----|

|
| W +W W W
 
 |-----------------|---------------------------|----------|------|
 |-----------------|---------------------------|----------|------|
 |-----------------|---------------------------|----------|------|
 |-6---------------|-(6)-----------------------|-2--------|-4----|
 |-6---------------|-(6)-----------------------|-2--------|-4----|
 |-4---------------|-(4)-----------------------|-0--------|-2----|

[A5] [A5]  
 
 PM------------| PM------------|

S S S S S S S S E E E E S S S S S S S S E E E E
 
 ||--------------------------|-------------------------|
 ||o-------------------------|-------------------------|
 ||--------------------------|-------------------------|
 ||------------------------2-|-----------------------2-|
 ||o-----------------------0-|-----------------------0-|
 ||--1-1-1-1-1-1-1-1-0-1-0---|-1-1-1-1-1-1-1-1-0-1-0---|

[A5]  
 
 PM------------| PM----------------------------|

S S S S S S S S E E E E S S S S S S S S S S S S S S S S 5x
 
 |-------------------------|-----------------------------------||
 |-------------------------|----------------------------------o||
 |-------------------------|-----------------------------------||
 |-----------------------2-|-----------------------------------||
 |-----------------------0-|----------------------------------o||
 |-1-1-1-1-1-1-1-1-0-1-0---|-1-1-1-1-1-1-1-1-1-1-1-1-1-1-1-1---||

Chorus
[E5] [B5] [A5]  
 
 PM-------------------------------

W W S S S S S S S S S S S S S S S S
 
 |----------|----------|---------------------------------|
 |----------|----------|---------------------------------|
 |-9--------|-4--------|---------------------------------|
 |-9--------|-4--------|---------------------------------|
 |-7--------|-2--------|---------------------------------|
 |----------|----------|-5-5-5-5-5-5-5-5-5-5-5-5-5-5-5-5-|

|
| Gtr II
| W W W
 
 |----------|----------|---------------------------------|
 |-5--------|----------|---------------------------------|
 |-4--------|-4--------|-2-------------------------------|
 |-2--------|-4--------|-2-------------------------------|
 |----------|-2--------|-0-------------------------------|
 |----------|----------|---------------------------------|

[D5]  
 
 -------------------------------|

S S S S S S S S S S S S S S S S
 
 |-----------------------------------|
 |-----------------------------------|
 |-----------------------------------|
 |-----------------------------------|
 |-5-5-5-5-5-5-5-5-5-5-5-5-5-5-5-5---|
 |-----------------------------------|

|
| W
 
 |-----------------------------------|
 |-3---------------------------------|
 |-2---------------------------------|
 |-0---------------------------------|
 |-----------------------------------|
 |-----------------------------------|

[E5]W [D5]W [C#5]W [D5]W
 
 |----------|----------|----------|------|
 |-5--------|----------|----------|------|
 |-4--------|-7--------|-6--------|-7----|
 |-2--------|-7--------|-6--------|-7----|
 |----------|-5--------|-4--------|-5----|
 |----------|----------|----------|------|

|
| W W W W
 
 |----------|----------|----------|------|
 |-5--------|-3--------|----------|-3----|
 |-4--------|-2--------|-6--------|-2----|
 |-2--------|-0--------|-6--------|-0----|
 |----------|----------|-4--------|------|
 |----------|----------|----------|------|

[E5] [B5] [A5]  
 
 PM-------------------------------

W W S S S S S S S S S S S S S S S S
 
 |----------|----------|---------------------------------|
 |----------|----------|---------------------------------|
 |-9--------|----------|---------------------------------|
 |-9--------|-9--------|---------------------------------|
 |-7--------|-9--------|---------------------------------|
 |----------|-7--------|-5-5-5-5-5-5-5-5-5-5-5-5-5-5-5-5-|

|
| W W W
 
 |----------|----------|---------------------------------|
 |-5--------|----------|---------------------------------|
 |-4--------|-4--------|-2-------------------------------|
 |-2--------|-4--------|-2-------------------------------|
 |----------|-2--------|-0-------------------------------|
 |----------|----------|---------------------------------|

[D5]  
 
 -------------------------------|

S S S S S S S S S S S S S S S S
 
 |-----------------------------------|
 |-----------------------------------|
 |-----------------------------------|
 |-----------------------------------|
 |-5-5-5-5-5-5-5-5-5-5-5-5-5-5-5-5---|
 |-----------------------------------|

|
| W
 
 |-----------------------------------|
 |-3---------------------------------|
 |-2---------------------------------|
 |-0---------------------------------|
 |-----------------------------------|
 |-----------------------------------|

[E5]W [D5]W [C#5]W [D5]W
 
 |----------|----------|----------|------|
 |----------|----------|----------|------|
 |-9--------|-7--------|-6--------|-7----|
 |-9--------|-7--------|-6--------|-7----|
 |-7--------|-5--------|-4--------|-5----|
 |----------|----------|----------|------|

|
| W W W W
 
 |----------|----------|----------|------|
 |-5--------|-3--------|----------|-3----|
 |-4--------|-2--------|-6--------|-2----|
 |-2--------|-0--------|-6--------|-0----|
 |----------|----------|-4--------|------|
 |----------|----------|----------|------|

[E5] [B5] [A5]  
 
 PM-------------------------------

W W S S S S S S S S S S S S S S S S
 
 |----------|----------|---------------------------------|
 |----------|----------|---------------------------------|
 |-9--------|----------|---------------------------------|
 |-9--------|-9--------|---------------------------------|
 |-7--------|-9--------|---------------------------------|
 |----------|-7--------|-5-5-5-5-5-5-5-5-5-5-5-5-5-5-5-5-|

|
| W W W
 
 |----------|----------|---------------------------------|
 |-5--------|----------|---------------------------------|
 |-4--------|-4--------|-2-------------------------------|
 |-2--------|-4--------|-2-------------------------------|
 |----------|-2--------|-0-------------------------------|
 |----------|----------|---------------------------------|

[D5]  
 
 -------------------------------|

S S S S S S S S S S S S S S S S
 
 |-----------------------------------|
 |-----------------------------------|
 |-----------------------------------|
 |-----------------------------------|
 |-5-5-5-5-5-5-5-5-5-5-5-5-5-5-5-5---|
 |-----------------------------------|

|
| W
 
 |-----------------------------------|
 |-3---------------------------------|
 |-2---------------------------------|
 |-0---------------------------------|
 |-----------------------------------|
 |-----------------------------------|

[E5]W [D5]W [C#5]W [D5]W
 
 |----------|----------|----------|------|
 |----------|----------|----------|------|
 |-9--------|-7--------|-6--------|-7----|
 |-9--------|-7--------|-6--------|-7----|
 |-7--------|-5--------|-4--------|-5----|
 |----------|----------|----------|------|

|
| W W W W
 
 |----------|----------|----------|------|
 |-5--------|-3--------|----------|-3----|
 |-4--------|-2--------|-6--------|-2----|
 |-2--------|-0--------|-6--------|-0----|
 |----------|----------|-4--------|------|
 |----------|----------|----------|------|

[E5] [B5] [A5]  
 
 PM-------------------------------

W W S S S S S S S S S S S S S S S S
 
 |----------|----------|---------------------------------|
 |----------|----------|---------------------------------|
 |-9--------|----------|---------------------------------|
 |-9--------|-9--------|---------------------------------|
 |-7--------|-9--------|---------------------------------|
 |----------|-7--------|-5-5-5-5-5-5-5-5-5-5-5-5-5-5-5-5-|

|
| W W W
 
 |----------|----------|---------------------------------|
 |-5--------|----------|---------------------------------|
 |-4--------|-4--------|-2-------------------------------|
 |-2--------|-4--------|-2-------------------------------|
 |----------|-2--------|-0-------------------------------|
 |----------|----------|---------------------------------|

[D5]  
 
 -------------------------------|

S S S S S S S S S S S S S S S S
 
 |-----------------------------------|
 |-----------------------------------|
 |-----------------------------------|
 |-----------------------------------|
 |-5-5-5-5-5-5-5-5-5-5-5-5-5-5-5-5---|
 |-----------------------------------|

|
| W
 
 |-----------------------------------|
 |-3---------------------------------|
 |-2---------------------------------|
 |-0---------------------------------|
 |-----------------------------------|
 |-----------------------------------|

[E5]W [D5]W [C#5]W [D5]W
 
 |----------|----------|----------|------|
 |----------|----------|----------|------|
 |-9--------|-7--------|-6--------|-7----|
 |-9--------|-7--------|-6--------|-7----|
 |-7--------|-5--------|-4--------|-5----|
 |----------|----------|----------|------|

|
| W W W W
 
 |----------|----------|----------|------|
 |-5--------|-3--------|----------|-3----|
 |-4--------|-2--------|-6--------|-2----|
 |-2--------|-0--------|-6--------|-0----|
 |----------|----------|-4--------|------|
 |----------|----------|----------|------|

[E5]W [B5]W [A5]W [D5]W
 
 |----------|----------|----------|------|
 |----------|----------|----------|------|
 |-9--------|----------|----------|-7----|
 |-9--------|-9--------|-7--------|-7----|
 |-7--------|-9--------|-7--------|-5----|
 |----------|-7--------|-5--------|------|

|
| W W W W
 
 |----------|----------|----------|------|
 |-5--------|----------|----------|-3----|
 |-4--------|-4--------|-2--------|-2----|
 |-2--------|-4--------|-2--------|-0----|
 |----------|-2--------|-0--------|------|
 |----------|----------|----------|------|

[E5]W [D5]W [C#5]W [D5]W
 
 |----------|----------|----------|------|
 |----------|----------|----------|------|
 |-9--------|-7--------|-6--------|-7----|
 |-9--------|-7--------|-6--------|-7----|
 |-7--------|-5--------|-4--------|-5----|
 |----------|----------|----------|------|

|
| W W W W
 
 |----------|----------|----------|------|
 |-5--------|-3--------|----------|-3----|
 |-4--------|-2--------|-6--------|-2----|
 |-2--------|-0--------|-6--------|-0----|
 |----------|----------|-4--------|------|
 |----------|----------|----------|------|

[E5]W [B5]W [A5]W [D5]W
 
 |----------|----------|----------|------|
 |----------|----------|----------|------|
 |-9--------|----------|----------|-7----|
 |-9--------|-9--------|-7--------|-7----|
 |-7--------|-9--------|-7--------|-5----|
 |----------|-7--------|-5--------|------|

|
| W W W W
 
 |----------|----------|----------|------|
 |-5--------|----------|----------|-3----|
 |-4--------|-4--------|-2--------|-2----|
 |-2--------|-4--------|-2--------|-0----|
 |----------|-2--------|-0--------|------|
 |----------|----------|----------|------|

[E5]W [D5]W [C#5]W [D5]W
 
 |----------|----------|----------|------|
 |----------|----------|----------|------|
 |-9--------|-7--------|-6--------|-7----|
 |-9--------|-7--------|-6--------|-7----|
 |-7--------|-5--------|-4--------|-5----|
 |----------|----------|----------|------|

|
| W W W W
 
 |----------|----------|----------|------|
 |-5--------|-3--------|----------|-3----|
 |-4--------|-2--------|-6--------|-2----|
 |-2--------|-0--------|-6--------|-0----|
 |----------|----------|-4--------|------|
 |----------|----------|----------|------|

Outro
[E5] PM| PM| [B5] PM| PM| [A5] PM| PM| [D5] PM| PM|
Q E E Q E E Q E E Q E E Q E E Q E E Q E E Q E E
 
 |---------------|---------------|---------------|----------------|
 |---------------|---------------|---------------|----------------|
 |-9------9------|---------------|---------------|-7------7-------|
 |-9------9------|-9------9------|-7------7------|-7------7-------|
 |-7--7-7-7--7-7-|-9------9------|-7------7------|-5--5-5-5--5-5--|
 |---------------|-7--7-7-7--7-7-|-5--5-5-5--5-5-|----------------|

|
| W W W W
 
 |---------------|---------------|---------------|----------------|
 |-5-------------|---------------|---------------|-3--------------|
 |-4-------------|-4-------------|-2-------------|-2--------------|
 |-2-------------|-4-------------|-2-------------|-0--------------|
 |---------------|-2-------------|-0-------------|----------------|
 |---------------|---------------|---------------|----------------|

[E5] PM| PM| [D5] PM| PM| [C#5] PM| PM| [D5] PM| PM|
Q E E Q E E Q E E Q E E Q E E Q E E Q E E Q E E
 
 |---------------|---------------|---------------|----------------|
 |---------------|---------------|---------------|----------------|
 |-9------9------|-7------7------|-6------6------|-7------7-------|
 |-9------9------|-7------7------|-6------6------|-7------7-------|
 |-7--7-7-7--7-7-|-5--5-5-5--5-5-|-4--4-4-4--4-4-|-5--5-5-5--5-5--|
 |---------------|---------------|---------------|----------------|

|
| W W W W
 
 |---------------|---------------|---------------|----------------|
 |-5-------------|-3-------------|---------------|-3--------------|
 |-4-------------|-2-------------|-6-------------|-2--------------|
 |-2-------------|-0-------------|-6-------------|-0--------------|
 |---------------|---------------|-4-------------|----------------|
 |---------------|---------------|---------------|----------------|

[E5] PM| PM| [B5] PM| PM| [A5] PM| PM| [D5] PM| PM|
Q E E Q E E Q E E Q E E Q E E Q E E Q E E Q E E
 
 |---------------|---------------|---------------|----------------|
 |---------------|---------------|---------------|----------------|
 |-9------9------|---------------|---------------|-7------7-------|
 |-9------9------|-9------9------|-7------7------|-7------7-------|
 |-7--7-7-7--7-7-|-9------9------|-7------7------|-5--5-5-5--5-5--|
 |---------------|-7--7-7-7--7-7-|-5--5-5-5--5-5-|----------------|

|
| W W W W
 
 |---------------|---------------|---------------|----------------|
 |-5-------------|---------------|---------------|-3--------------|
 |-4-------------|-4-------------|-2-------------|-2--------------|
 |-2-------------|-4-------------|-2-------------|-0--------------|
 |---------------|-2-------------|-0-------------|----------------|
 |---------------|---------------|---------------|----------------|

[E5] PM| PM| [D5] PM| [C#5] PM| [D5] PM| PM|
Q E E Q E E Q E E Q E E Q E E Q E E Q E E Q E E
 
 |---------------|---------------|---------------|----------------|
 |---------------|---------------|---------------|----------------|
 |-9------9------|-7------7------|-6------6------|-7------7-------|
 |-9------9------|-7------7------|-6------6------|-7------7-------|
 |-7--7-7-7--7-7-|-5--5-5-5--5-5-|-4--4-4-4--4-4-|-5--5-5-5--5-5--|
 |---------------|---------------|---------------|----------------|

|
| W W W W
 
 |---------------|---------------|---------------|----------------|
 |-5-------------|-3-------------|---------------|-3--------------|
 |-4-------------|-2-------------|-6-------------|-2--------------|
 |-2-------------|-0-------------|-6-------------|-0--------------|
 |---------------|---------------|-4-------------|----------------|
 |---------------|---------------|---------------|----------------|

[E5] PM| PM| [B5] PM| PM| [A5] PM| PM| [D5] PM| PM|
Q E E Q E E Q E E Q E E Q E E Q E E Q E E Q E E
 
 |---------------|---------------|---------------|----------------|
 |---------------|---------------|---------------|----------------|
 |-9------9------|---------------|---------------|-7------7-------|
 |-9------9------|-9------9------|-7------7------|-7------7-------|
 |-7--7-7-7--7-7-|-9------9------|-7------7------|-5--5-5-5--5-5--|
 |---------------|-7--7-7-7--7-7-|-5--5-5-5--5-5-|----------------|

|
| W W W W
 
 |---------------|---------------|---------------|----------------|
 |-5-------------|---------------|---------------|-3--------------|
 |-4-------------|-4-------------|-2-------------|-2--------------|
 |-2-------------|-4-------------|-2-------------|-0--------------|
 |---------------|-2-------------|-0-------------|----------------|
 |---------------|---------------|---------------|----------------|

[E5] PM| [E5] PM| [G5] PM| [G5] PM| [A5] PM| [A5] PM| [F#5] PM| [F#5] PM|[E5]
Q E E Q E E Q E E Q E E Q E E Q E E Q E E Q E E W
 
 |---------------|---------------|---------------|-----------------|------*|
 |---------------|---------------|---------------|-----------------|------*|
 |-9------9------|-7------7------|-9------9------|-----------------|------*|
 |-9------9------|-5--5-5-5--5-5-|-7--7-7-7--7-7-|-11------11------|------*|
 |-7--7-7-7--7-7-|---------------|---------------|--9--9-9--9--9-9-|------*|
 |---------------|---------------|---------------|-----------------|------*|

|
| W W W W W
 
 |---------------|---------------|---------------|-----------------|------*|
 |-5-------------|-3-------------|-5-------------|-----------------|------*|
 |-4-------------|-0-------------|-2-------------|--6--------------|------*|
 |-2-------------|---------------|---------------|--4--------------|-2----*|
 |---------------|---------------|---------------|-----------------|-2----*|
 |---------------|---------------|---------------|-----------------|-0----*|

Duration Legend
 
 ---------------
 W - whole; H - half; Q - quarter; E - 8th; S - 16th; T - 32nd; X - 64th; a - acciaccatura

+ - note tied to previous; . - note dotted; .. - note double dotted
Uncapitalized letters represent notes that are staccato (1/2 duration)
Irregular groupings are notated above the duration line
Duration letters will always appear directly above the note/fret number it represents the
duration for. Duration letters with no fret number below them represent rests. Multi-
bar rests are notated in the form Wxn, where n is the number of bars to rest for. Low
melody durations appear below the staff
Tablature Legend
 
 ----------------

h - hammer-on
p - pull-off
b - bend
pb - pre-bend
r - bend release (if no number after the r, then release immediately)
/\ - slide into or out of (from/to "nowhere")
s - legato slide
S - shift slide
- natural harmonic
(n) - artificial harmonic
n(n) - tapped harmonic
~ - vibrato
tr - trill
T - tap
TP - trem. picking
PM - palm muting
\n/ - tremolo bar dip; n = amount to dip
\n - tremolo bar down
n/ - tremolo bar up
/n\ - tremolo bar inverted dip
= - hold bend; also acts as connecting device for hammers/pulls
- volume swell (louder/softer)
x - on rhythm slash represents muted slash
o - on rhythm slash represents single note slash
Misc Legend
 
 -----------

| - bar
|| - double bar
||o - repeat start
o|| - repeat end
*| - double bar (ending)
: - bar (freetime)
$ - Segno
& - Coda
Tempo markers - = BPM(8/16=s8/s16), where s8 = swing 8ths, s16 = swing 16ths

Important: The song above is NOT stored on the Chordie server. The original song is hosted at www.guitaretab.com. Chordie works as a search engine and provides on-the-fly formatting. Chordie does not index songs against artists'/composers' will. To remove this song please click here.

Text color:
Chord color:
Chord grids: 
Font size:    
Page size: 

A5 B5 C#5 D#5 D5 E E5 F F#5 G#5 G5 G5/D
Rate #1 of 1 versions

Jango Player

Login - add to songbook

SHARE PAGE  



You need to log in to post comments