Guitar Tabs, Chords and Lyrics
Server problems seems to be fixed. Chordie has been experiencing problems with songs disappearing. These issues now seems to be fixed, but still verifying the fix. If you find anything strange, please email admin@chordie.com.


Breathe  Feeling Left Out

Title: Breathe
Album: Once Upon a Time
Transcribed by: Brandon Martus
Tuning: Standard
E-mail: mister@pubarso.com
This should be enough to play and have it sound like the record.
There are two guitars, I only tabbed out the second guitar in the chorus.
Listen to the song to get the order, number of times played, rhythm, and such.
It's tabbed out with 4 beats per measure, I think; it's been a while ...
Intro:
 
 E -----------------------|-----------------------------|--------0---0--------0---0-|
 B -------0-----------0---|----------0---0--------0---0-|------0---0--------0---0---|
 G -----0---0-------0---0-|--------0---0--------0---0---|----9------------9---------|
 D ---5-----------7-------|------9------------9---------|-10-----------10-----------|
 A -7---------7/9---------|-9/10-----------10-----------|---------------------------|
 E -----------------------|-----------------------------|---------------------------|
 E -------------------------|-------------------------|-----------------------------|
 B -----8---8-------8---8---|-----8---8-------8---8---|-----7---7-------7---7-------|
 G ---7---7---7---7---7---7-|---6---6---6---6---6---6-|---5---5---5---5---5---5-----|
 D -9-----------9-----------|-5-----------5-----------|-7-----------7---------------|
 A -------------------------|-------------------------|-----------------------------|
 E -------------------------|-------------------------|-----------------------------|
 E -------------------------|-------------------------|--------------0--------------|
 B -----7---7-------7---7---|-------0-----------0-----|-------0------0--------------|
 G ---5---5---5---5---5---5-|-----0---0-------0---0---|-----0---0----0--------------|
 D -4-----------4-----------|---2-------2---2-------2-|---0-------0--4--- hold it --|
 A -------------------------|-3-----------3-----------|-2------------6--------------|
 E -------------------------|-------------------------|-----------------------------|

Verse:
 
 E -0-----0-----0----0----|----0-----0-----0-----0----|--0------0------0------0-----|
 B -0-----0-----0----0----|----0-----0-----0-----0----|--0------0------0------0-----|
 G -0-----0-----0----0----|----0-----0-----0-----0----|--9------9------9------9-----|
 D -5-----5-----7----7----|----9-----9-----9-----9----|-10-----10-----10-----10-----|
 A -7-----7---7/9----9----|-9/10----10----10----10----|-----------------------------|
 E -----------------------|---------------------------|-----------------------------|
 E -0-----0-----0-----0-----|-0-----0-----0-----0-----|-0-----0-----0------0--------|
 B -8-----8-----8-----8-----|-8-----8-----8-----8-----|-7-----7-----7------7--------|
 G -7-----7-----7-----7-----|-6-----6-----6-----6-----|-5-----5-----5------5--------|
 D -9-----9-----9-----9-----|-5-----5-----5-----5-----|-7-----7-----7------7--------|
 A -------------------------|-------------------------|-----------------------------|
 E -------------------------|-------------------------|-----------------------------|
 E -0-----0-----0-----0-----|-0-----0-----0-----0-----|-0-----0-----0---------------|
 B -7-----7-----7-----7-----|-0-----0-----0-----0-----|-0-----0-----0---------------|
 G -5-----5-----5-----5-----|-0-----0-----0-----0-----|-0-----0-----0---------------|
 D -4-----4-----4-----4-----|-2-----2-----2-----2-----|-0-----0-----4--- hold it ---|
 A -------------------------|-3-----3-----3-----3-----|-2-----2-----6---------------|
 E -------------------------|-------------------------|-----------------------------|

Chorus: (guitar 1)
"Wiper blades.. " "engine hums .."
 
 E -0-----------------------|-0-----------------------|-x-----------x---------------|
 B -0-----------------------|-0-----------------------|-x-----------x---------------|
 G -0-----------------------|-7-----------------------|-11----------12--------------|
 D -2-----------------------|-7-----------------------|-x-----------x---------------|
 A -2-----------------------|-5-----------------------|-9-----------10--------------|
 E -0-----------------------|-------------------------|-x-----------x---------------|
 E -x-----------x-----------|
 B -x-----------x-----------|
 G -11----------12----------|
 D -x-----------x-----------|
 A -9-----------10----------|
 E -x-----------x-----------|

Chorus: (guitar 2)
"Wiper blades.. " "engine hums .."
 
 E -0-----------------------|-0-----------------------|-x---------x---------------|
 B -0-----------------------|-0-----------------------|-x---------x--------x------|
 G -0-----------------------|-7-----------------------|-16-------\14------\12-----|
 D -2-----------------------|-7-----------------------|-x---------x--------x------|
 A -2-----------------------|-5-----------------------|-14-------\12------\10-----|
 E -0-----------------------|-------------------------|-x---------x--------x------|
 E -x---------x-------------|
 B -x---------x--------x----|
 G -16-------\14------\12---|
 D -x---------x--------x----|
 A -14-------\12------\10---|
 E -x---------x--------x----|

Outro:
| | | | |
| Em | G | Am / Bm Am \ F#m | F#m / G |
| | | | |
| | | | |
| | | | |
Chords used in Outro:
[Em]0 [G]3 [Am]5 [Bm]7 [F#m]2
0 3 5 7 2
0 4 5 7 2
[2] [5] [7] [9] [4]  
[2]0 [5]3 [7]5 [9]7 [4]2

Important: The song above is NOT stored on the Chordie server. The original song is hosted at www.guitaretab.com. Chordie works as a search engine and provides on-the-fly formatting. Chordie does not index songs against artists'/composers' will. To remove this song please click here.

Text color:
Chord color:
Chord grids: 
Font size:    
Page size: 

Am Bm Em F#m G
Rate #1 of 3 versions

Jango Player

Login - add to songbook

SHARE PAGE  



You need to log in to post comments