Guitar Tabs, Chords and Lyrics
Server problems seems to be fixed. Chordie has been experiencing problems with songs disappearing. These issues now seems to be fixed, but still verifying the fix. If you find anything strange, please email admin@chordie.com.


Mushaboom  Feist

**Capo on 1st fret**
Here's a little Feist cover done by a band called Bright Eyes. If you didn't read that
marked note directly above this paragraph, this song IS in fact done with a capo on the
fret. As usual, the chord names are relative to the capo, blah, blah... If you think
fancy and want to use all barre chords and not use the capo, then fine. It's not
though, as I have mentioned the useful using of a capo quite clearly. Stop reading this.
the song now.
Intro
G A (barre chords work best here but open chords are fine also)
[D]Helping the kids out of their coats
But wait the babies haven't been born [G] (ohh oh [D]ooo-oo)
[D]Unpacking the bags and setting up
And planting lilacs and buttercups [G] (ohh oh [D]ooo-oo)
Em (hold chord)
But in the meantime I've got it hard
Second floor living without a yard[D]
It [Em]may be years until the day
My dreams will match up with my pay[D]
[Em]Ooo-[F#m]ooo-[Bm]oold dirt road
[Em]Hi-[F#m]igh [Bm]Knee deep snow
[Em]Watching the [F#m]fire [Bm]as we grow old
[Em]Ohh-[F#m]ohhh-[G]ooo-[A]ooo
[D] [G] [D]  
 
 e|----------------|---------------|----------------------|--------------------|
 B|----------------|---------------|--3-0-----------------|--------------------|
 G|----------------|---------------|------/4-----/4-/4-2--|--------------------|
 D|--2h4-4-2-0-0-2-|--2h4-4-2-0-4--|----------------------|----------4--2--0---|
 A|----------------|---------------|----------------------|--------------------|
 E|----------------|---------------|----------------------|--------------------|

[D] [G]  
 
 e|-------------|-----------|---------------|-------------------------|
 B|----3-3------|-----------|--------3------|-------------------------|
 G|-------------|-----------|----2-2--------|------/4----/4-/4-/4--2--|
 D|--0-----4-0--|------0----|--0-------4-0--|-------------------------|
 A|-------------|--2-0------|---------------|--2-0--------------------|
 E|-------------|-----------|---------------|-------------------------|

[D]I got a man to stick it out
And make a home from a rented house [G] (ohh oh [D]ooo-oo)
[D]And we'll collect the moments one by one
I guess that's how the future's done [G] (ohh oh [D]ooo-oo)
Em (hold chord)
How many acres how much light
Tucked in the woods and out of sight[D]
I [Em]Wave to the neighbours and tip my cap
On a little road barely on the map[D]
**Strum the D 4 hard, short times now
[Em]Ooo-[F#m]ooo-[Bm]oold dirt road
[Em]Hi-[F#m]igh [Bm]Knee deep snow
[Em]Watching the [F#m]fire [Bm]as we grow old
[Em]Ahh-[F#m]ahh-[Bm]ooo-oww
[Em]Ooo-[F#m]ooo-[G]ool[A]d
[D]  
 
 e||--0-2--0-2-----|-------2------|| 


Important: The song above is NOT stored on the Chordie server. The original song is hosted at www.guitaretab.com. Chordie works as a search engine and provides on-the-fly formatting. Chordie does not index songs against artists'/composers' will. To remove this song please click here.

Text color:
Chord color:
Chord grids: 
Font size:    
Page size: 

A Bm D Em F#m G
Rate #1 of 11 versions

Jango Player

Login - add to songbook

SHARE PAGE  




You need to log in to post comments