Guitar Tabs, Chords and Lyrics
Server problems seems to be fixed. Chordie has been experiencing problems with songs disappearing. These issues now seems to be fixed, but still verifying the fix. If you find anything strange, please email admin@chordie.com.


Mustang  Feromona

Feromona - Mustang
Album: Uma Vida a Direito
Tuning: Standard
Key: Dm
Guitar Part 1
 
 e|------------------------------------------------------------------|
 B|------------------------------------------------------------------|
 G|------------------------------------------------------------------|
 D|-0-0-0-3-3-3-4-4-4---------------------------3-3-3----------------| (2x)
 A|-------------------4-4-4-3-3-4-4-1-1-1-0-0-0-------0-0-0-1-1-0-0--|
 E|------------------------------------------------------------------|

Guitar Part 2
[Dm] [Bb]  
 
 e|------------------------------------------------------------------|
 B|------------------------------------------------------------------|
 G|------7-------------7---------------------------------------------|
 D|----7--7--7-------7--7--7-----------8----6-----7-7----------------| (2x)
 A|--5------5------5------5----------8----8-----8--------------------|
 E|--------------------------------6----6-----6----------------------|

Guitar Part 3
[Dm] [Bb]  
 
 e|------------------------------------------------------------------|
 B|------*6-6-6-6----------------------*6-6-6-6----------------------|
 G|------*7-7-7-7----------------------*7-7-7-7----------------------|
 D|------*7-7-7-7----------------------*8-8-8-8----------------------|
 A|------*5-5-5-5----------------------*8-8-8-8----------------------|
 E|------------------------------------------------------------------|

*Understand the rhythm, by listening to the song.
Guitar Part 4
[G] [Bb] [Dm]  
 
 e|------------------------------------------------------------------|
 B|------3----------6-------6-6-6----6-6-6---------------------------|
 G|------4----------7-------7-7-7----7-7-7-(6-5)---------------------|
 D|------5----------8-------7-7-7----7-7-7---------------------------|
 A|------5----------8-------5-5-5----5-5-5---------------------------|
 E|------------------------------------------------------------------|

(6-5) - Only in the first time.
Scheme:
Guitar Part 1
Guitar Part 2
Sai pró trabalho e acredita que tem que ser assim |
tira a ramela do olho, põe o carro a vibrar |
sonha que tem um Mustang e hoje é o Steve McQueen | Bass Only
como um rebelde nervoso, faz as rodas chiar |
só precisa de uma história que justifique o fim |
qualquer coisa muito heróica pra ninguém duvidar |
que ele é capaz! | Guitar Part 3
que ele é diferente! |
corre veloz e contente, a vida vai mudar |
Guitar Part 4
coisas que viu no cinema |
e que inspiraram milhões, ele não é excepção... | Guitar Part 4
imagina cada cena, estremece |
está a gostar do guião |
Guitar Part 2
Guitar Part 3
roda o volante e transpira, será herói ou vilão? |
o bom da fita nem sempre tem um final feliz | Bass Only
mas quem é protagonista deve ter sua canção |
com melodia vincada e uma letra que diz: |
que ele é capaz! |
que ele é diferente! |
corre veloz e contente e a vida vai mudar | Guitar Part 3
mas tem azar! |
choca de frente |
com um camionista imprudente, nem conseguiu travar |
Guitr Part 4
e nada disto é cinema |
já não existem heróis, ele não é excepção... | Guitar Part 4
pelo desfecho da cena, parece |
morreu sem consagração |
Overdriven Guitar (Listen to the song to use the rhythm correctly)
[Dm] [Bb]  
 
 e|-----------------------------------6-6-6-6----------------------------|
 B|------6-6-6-6----------------------6-6-6-6----------------------------|
 G|------7-7-7-7----------------------7-7-7-7----------------------------|
 D|------7-7-7-7----------------------8-8-8-8----------------------------|
 A|------5-5-5-5---------------------------------------------------------|
 E|----------------------------------------------------------------------|

Solo (Listen to the song to know exactly the number of notes):
 
 e|----------------------------------------------------------------------|
 B|--333-555-666-888-101010x-11-11-11-11-11-11-11-11-101010101010--66-55-|
 G|----------------------------------------------------------------------|
 D|----------------------------------------------------------------------|
 A|----------------------------------------------------------------------|
 E|----------------------------------------------------------------------|
 e|----------------------------------------------------------------------|
 B|--333-555-666-888-101010x-11-11-11-11-11-11-11-11-14-14-14-14-14-14---|
 G|----------------------------------------------------------------------|
 D|----------------------------------------------------------------------|
 A|----------------------------------------------------------------------|
 E|----------------------------------------------------------------------|

Scheme:
Overdriven Guitar (x2)
Solo
Overdriven Guitar (x2)
Solo
Overdriven Guitar (x2)
Solo (x2)
End:
[D5]  
 
 e|-----------|
 B|-----------|
 G|--7--------|
 D|--7--------|
 A|--5--------|
 E|-----------|

http://www.myspace.com/feromona

Important: The song above is NOT stored on the Chordie server. The original song is hosted at www.guitaretab.com. Chordie works as a search engine and provides on-the-fly formatting. Chordie does not index songs against artists'/composers' will. To remove this song please click here.

Text color:
Chord color:
Chord grids: 
Font size:    
Page size: 

Bb D5 Dm G
Rate #1 of 2 versions

Jango Player

Login - add to songbook

SHARE PAGE  



You need to log in to post comments