Guitar Tabs, Chords and Lyrics
Major upgrade!! After one year development the new version of Chordie is now online! Please give feedback.


Family Values  Fifteen

mute=*
Slide=/
INTRO-Course
 
 E ----------------------------------|
 B ----------------------------------|
 G --------5--5-5--------5--5-5------|
 D -5--5-5-5--5-5-5--5-5-5--5-5------| X4
 A -5--5-5-3--3-3-5--5-5-3--3-3------|
 E -3--3-3--------3--3-3-------------|

Verse
 
 E -----------------------------------------|
 B ------5-5-5------------------------------|
 G -7--7-5-5-5-5--5--5-5-5-5----------------|
 D -7--7-3-3-3-5--5--5-5-5-5-5--5-5-5-5-5-5-| X3
 A -5--5-------3--3--3-3-3-3-5--5-5-5-5-5-5-|
 E --------------------------3--3-3-3-3-3-3-|

* * * * * *
Fill
[E] [-]  
[B] [-]  
 
 G ---------------------5-------------------7---------7-7-7-7-7-7-7-7-|
 D -5/-------12/--------5---5-5-5-5-5-5-5-5-7-5-5-5-5-7-7-7-7-7-7-7-7-|
 A -5/-------12/--------3---5-5-5-5-5-5-5-5-5-5-5-5-5-5-5-5-5-5-5-5-5-|
 E -3/-------10/------------3-3-3-3-3-3-3-3---3-3-3-3-----------------|

* * * * * * * * * * * *
verse#2
 
 E --------------------------------------------------------------|
 B --------------------------------------------------------------|
 G ---------------------------------------5--5-5-5-5-5-5-5-5-5---|
 D -5--5-5-5-5-5-5/-12--12-12-12-12-12-12/5--5-5-5-5-5-5-5-5-5---| X4
 A -5--5-5-5-5-5-5/-12--12-12-12-12-12-12/3--3-3-3-3-3-3-3-3-3---|
 E -3--3-3-3-3-3-3/-10--10-10-10-10-10-10/-----------------------| 

* * * * * * * *
ON Last time play this at end.
 
 E -------------|
 B -------------|
 G -5-5-5-5-5-5-|
 D -5-5-5-5-5-5-|
 A -3-3-3-3-3-3-|
 E -------------|

verse#3
 
 E --------------------------------------------------------------|
 B --------------------------------------------------------------|
 G ---------------------------------------5--5-5-5-5-5-5-5-5-5---|
 D -5--5-5-5-5-5-5/-12--12-12-12-12-12-12/5--5-5-5-5-5-5-5-5-5---| X4
 A -5--5-5-5-5-5-5/-12--12-12-12-12-12-12/3--3-3-3-3-3-3-3-3-3---|
 E -3--3-3-3-3-3-3/-10--10-10-10-10-10-10/-----------------------|
 On last time play this at end. E -----------------------|
 B -----------------------|
 G ------R----------------|
 D -5--L-I----------------|
 A -5--E-N----------------|
 E -3--T-G----------------|

ORDER
1.Intro
2.verse
3.fill
4.course
5.verse
6.fill
7.verse#2
8.Verse#3

Important: The song above is NOT stored on the Chordie server. The original song is hosted at www.guitaretab.com. Chordie works as a search engine and provides on-the-fly formatting. Chordie does not index songs against artists'/composers' will. To remove this song please click here.

Text color:
Chord color:
Chord grids: 
Font size:    
Page size: 

B E
Rate #1 of 2 versions

Jango Player

Login - add to songbook

SHARE PAGE  




You need to log in to post comments