Guitar Tabs, Chords and Lyrics
Server problems seems to be fixed. Chordie has been experiencing problems with songs disappearing. These issues now seems to be fixed, but still verifying the fix. If you find anything strange, please email admin@chordie.com.


I Will Lead You   Filter

 
 |-----------------------------------|
 |-----------------------------------|o
 |-----------------------------------|
 |-----------------------------------|
 |-----------------------------------|o
 |-0-3-5-0-3-5-0-3-5-0-3-5--0-0-0-0--|

 


 


 Riff 1


 


 

 
 |-----------------------------------|
 |-----------------------------------|o
 |-----------------------------------|
 |-0-3-5-0-3-5-0-3-5-0-3-5--0-0-0-0--|
 |-0-3-5-0-3-5-0-3-5-0-3-5--0-0-0-0--|o
 |-0-3-5-0-3-5-0-3-5-0-3-5--0-0-0-0--|

 


 


 The bass pretty much has the floor though the verses.


 pre-chorus: Riff 2


 

 
 |--------------------------------------------------------------|
 |--------------------------------------------------------------|
 |-2-2-2---------------------10-----2-2-2--------------------3--|
 |-2-2-2--3-3-3--1----8-8-8--10-----2-2-2--3-3-3--1---1-1-1--3--|
 |-0-0-0--3-3-3--1----8-8-8--8------0-0-0--3-3-3--1---1-1-1--1--|
 |--------3-3-3--1---/8-8-8--8-------------3-3-3--1---1-1-1--1--|
 |--------------------------------------------------------------|
 |--------------------------------------------------------------|
 |-2-2-2---------------------10---------------------------------|
 |-2-2-2--3-3-3--1----8-8-8--10-----0-0-0-0---6-5-3--0-3-0-3-5--|
 |-0-0-0--3-3-3--1----8-8-8--8------0-0-0-0---6-5-3--0-3-0-3-5--|
 |--------3-3-3--1---/8-8-8--8------0-0-0-0---6-5-3--0-3-0-3-5--|

 


 


 This is the chorus these are the chords I'll let you put your own


 Riff 3 struming pattern on it...It's easier that way.


 


 

 
 |-------------|
 |-3-----------|o
 |-2-------10--|
 |-0-------10--| That get's played 3x
 |-0-------8---|o
 |-0-------8---|
 |---------------------------------|
 |---------------------------------|
 |---------------------------10----|
 |-0-0-3-5-0--0-3-5-0--0-----10----|
 |-0-0-3-5-0--0-3-5-0--0-----8-----|
 |-0-0-3-5-0--0-3-5-0--0-----8-----|

 


 16x


 


 After the Chorus jump right into "Riff 1".


 


 After that it's back to the ole' bass with


 the floor again for the verse.


 Then to the pre- chorus, "Riff 2" as we so call it.


 And once again, also for the last time, the chorus riff...yes "Riff 3".


 


 After that It's pretty much some vocals, drums, some bass and a few effects thrown in


 here and there from the guitars. I just usually wait about eight measures and I throw


 in a little "intro riff" for a few measures untill the breakdown.


 


 Here goes the "see you face to face" part.


 Once again, I'll give you the chords...you give it the flair.


 


 

 
 |---------|
 |-3-------|o
 |-2---10--|
 |-0---10--|
 |-0---8---|o
 |-0---8---|
 |---------------------------------|
 |---------------------------------|
 |---------------------------10----|
 |-0-0-3-5-0--0-3-5-0--0-----10----|
 |-0-0-3-5-0--0-3-5-0--0-----8-----|
 |-0-0-3-5-0--0-3-5-0--0-----8-----|


Important: The song above is NOT stored on the Chordie server. The original song is hosted at www.guitaretab.com. Chordie works as a search engine and provides on-the-fly formatting. Chordie does not index songs against artists'/composers' will. To remove this song please click here.

This song is displayed as text-only. Transposing and tuning is only available for chordpro-songs.
Rate #1 of 2 versions

Login - add to songbook

SHARE PAGE  



You need to log in to post comments