Guitar Tabs, Chords and Lyrics
Update 25:10. 13:00. Site is back up running again. Songbooks are recovered. Woring on getting search back up..


'cause to love you  Fingertips

Fingertips ? ?Tabbed by ? Pedro Alegria?
?cause to love you
Acordes:
D ? C ? 032010 alterna para 032000
F ? F ? 133210 alterna para 133200
Sol ? G - 320010 alterna para 320000
Rm ? Dm - 000231 alterna para 000230 | alterna para 000210
Intro:
D ? C | F - F | Sol ? G | D - C
 
 E ----------------------1----1----1-------------3------3---------------------|
 A ------3---------------3----3----3-------------2------2----------3-----3----|
 D ------2---------------3----3----3-------------0------0----------2-----2----|
 G ------0---------------2----2----2-------------0------0----------0-----0----|
 B ------1---------------1----0----1-------------1------0----------1-----0----|
 e ---------------------------------------------------------------------------|

Coro:
F ? F | Rm - Dm
 
 E --------1-----------------------------------------|
 A --------3-----------------------------------------|
 D --------3-----------------------------------------|
 G --------2---------------2--------2--------2-------|
 B --------1---------------3--------3--------1-------|
 e ------------------------1--------0--------0-------|

[C]When I?m feeling down
Nothing seems [F]ok
[G]I see her eyes and I believe I?ll find a[C] way
[C]When I?m feeling down
Things don?t go so we[F]ll
[G]I see her eyes and I forget the tears that f[C]ell
[C]When I?m alone in the street
And I?m scared and tir[F]ed
[G]For the first time in my whole life I felt des[C]ire
[C]When I?m far from home
And I just don?t want [F]to be found
G - 300033
I run into your arms and they bring my feet back to the ground
CHORUS
[F]?cause to love you means so much [Dm]more (2X)
[F]When I need to cry you make me try
I want to die and ask me why
G - 300033
?cause I can't fight no more
[C]When I?m feeling down
Nothing seems o[F]k
[G]I see her eyes and I believe we?ll find a [C]way
[C]I?m alone in the street
And I?m scared and t[F]ired
[G]For the first time in my whole life I felt de[C]sire
Minuto: 03:04, at 03:16:
F G - 300033
?cause to love you means so much more (2X)
LTIMO CORO ? END CHORUS Minuto ? 04:11
C-D F-F
?cause to love you means so much more
G-SOL C-D
?cause to love you means so much more
[C]When I wanted to stop
When I wanted to f[F]ail
G C?
I saw your eyes and I believed there?s so much more? so much more? so much more.

Important: The song above is NOT stored on the Chordie server. The original song is hosted at www.guitaretab.com. Chordie works as a search engine and provides on-the-fly formatting. Chordie does not index songs against artists'/composers' will. To remove this song please click here.

Text color:
Chord color:
Chord grids: 
Font size:    
Page size: 

C Dm F G
Rate #1 of 1 versions

Login - add to songbook

SHARE PAGE  




You need to log in to post comments