Guitar Tabs, Chords and Lyrics
Server problems seems to be fixed. Chordie has been experiencing problems with songs disappearing. These issues now seems to be fixed, but still verifying the fix. If you find anything strange, please email admin@chordie.com.


Not About Love  Fiona Apple

Artist : Fiona Apple (http://www.fiona-apple.com)
Song : Not About Love
Album : Extraordinary Machine (2005)
Youtube : http://www.youtube.com/watch?v=M88TQeatfcM
By delpho21, enjoy!
Chords used:
C E F Am A7 Q* F7 D* Dm
 
 e|-0---0----1---0----0----0----1----x----1--|
 b|-1---0----1---1----2----1----1----1----3--|
 g|-0---1----2---2----0----1----2----2----2--|
 d|-2---2----3---2----2----2----1----1----0--|
 a|-3---2----3---0----0----3----3----0----0--|
 e|-x---0----1---x----x----x----1----x----x--|

Intro:
[C] [E] [C] [E]  
 
 e|-----------------------------------------------|
 b|-----------------------------------------------|
 g|-----0-----------1-----------0----------1------|
 d|---2---2-------2---2-------2---2------2---2----|
 a|-3-----------------------3---------------------|
 e|-------------0----------------------0----------|

[F] [E] [Am] [Am]  
 
 e|-----------------------------------------------|
 b|-----------------------------------------------|
 g|-----2-----------1-----------2---------2-------|
 d|---3---3-------2---2-------2---2-----2---2-----|
 a|-------------------------0---------0-----------|
 e|-1-----------0---------------------------------|

[C]the early c[E]ars al[C]ready a[E]re
d[F]rawing d[E]eep breaths p[Am]ast my door
[C]and last night's ph[E]rases si[C]ck with lack of ba[E]sis
a[F]re still wri[E]thing on[Am] my floor
[A7]and it doesn't seem fair
t[F]hat your wicked wo[C]rds should wo[Dm]rk in holding me down
[A7]no it doesn't seem right
to t[F]ake informa[C]tion giv[F]en at close ran[C]ge
for the g[F]ag and the bi[C]nd and the amm[F]unition ro[E]und
[C]Conversatio[E]n once co[C]lored by e[E]steem
Became di[F]alogue as a [E]diagram of a p[Am]lay for blood
[C]Took a vac[E]ation, my p[C]alate got [E]clean
Now I could t[F]aste your ag[E]enda
While you sp[Am]it in your cud
[A7]And it doesn't make sense
I should fa[F]ll for the ki[C]ngcraft of a meri[Dm]tless crown
[A7]No, it doesn't seem right
To t[F]ake inform[C]ation Giv[F]en at close ran[C]ge
For the ga[F]g and the b[C]ind and the a[F]mmunition r[E]ound
Chorus
Am..Q* F7 D*
this is not about love
Am..Q* F7 D*
cause I am not in love
i[C]n fact [E]I can't s[G]top falling o[F]ut[F7]
Am..Q* F7 D*
this is not about love
Am..Q* F7 D*
cause I am not in love
i[C]n fact [E]I can't s[G]top falling o[F]ut
[F]I miss that stupid ache
Interlude:
C E C E F E Am. x2
A7... F C Dm
A7... F C F C F C F E
[C]what is this p[E]osture I [C]have to sta[E]re at
t[F]hat's what they s[E]aid when I was sit[Am]ting up straight
[C] change the n[E]ame of the ga[C]me 'cause he los[E]t
a[F]nd he knew h[E]e was wrong but[Am] he knew it too late
[A7]but I'm not being fair
cause I[F] chose to l[C]isten to that fil[Dm]thy mouth
[A7] but I'd like to choose right
t[F]ake all the t[C]hings that I've sai[F]d that he sto[C]le
p[F]ut 'em in a s[C]ack swing 'em ove[F]r my sho[C]ulder
t[F]urn on my h[C]eels ste[F]p out of his sig[C]ht
try to l[F]ive in a l[C]ovelier li[E]fe
Chorus
Am..Q* F7 D*
this is not about love
Am..Q* F7 D*
cause I am not in love
i[C]n fact [E]I can't s[G]top falling o[F]ut[F7]
Am..Q* F7 D*
this is not about love
Am..Q* F7 D*
cause I am not in love
i[C]n fact [E]I can't s[G]top falling o[F]ut
[F]I miss that stupid ache
Outro:
[C] [E] [C] [E] [F] [E] [Am] 

Important: The song above is NOT stored on the Chordie server. The original song is hosted at www.guitaretab.com. Chordie works as a search engine and provides on-the-fly formatting. Chordie does not index songs against artists'/composers' will. To remove this song please click here.

Text color:
Chord color:
Chord grids: 
Font size:    
Page size: 

A7 Am C Dm E F F7 G
Rate #2 of 3 versions

Login - add to songbook

SHARE PAGE  



You need to log in to post comments