Guitar Tabs, Chords and Lyrics
Server problems seems to be fixed. Chordie has been experiencing problems with songs disappearing. These issues now seems to be fixed, but still verifying the fix. If you find anything strange, please email admin@chordie.com.


Werewolf  Fiona Apple

 
 ----------------------------------------------------------------------------

WEREWOLF ? Fiona Apple (Tabs and Chords)
 
 ----------------------------------------------------------------------------

Tabbed by: J. Garces
Tuning: Standard
[----]TABS
[----]  
INTRO
 
 |-----x4------|
 e|-------------|
 B|----0--0-----|
 G|------0--0---|
 D|-------------|
 A|-------------|
 E|-3-----------|
 1- 2- 3-----|

VERSE
 
 |-----x4----| |-----x2-------|
 e|-----------|-----------|-----------|--------------|
 B|----0--0---|----1--1---|----0--0---|--------------|
 G|------0--0-|------2--2-|------0--0-|----2--2------| x2
 D|-----------|-----------|-----------|------3--3----|
 A|-----------|-0---------|-----------|--------------|
 E|-3---------|-----------|-3---------|-1------------|
 1- 2- 3- 1- 2- 3- 1- 2- 3- 1- 2- 3------|

(1) I could liken you to a werewolf, the way you left me for dead. But I admit that I
provided a full moon.
(2) And I could liken you to a shark, the way you bit off my head. But then again I was
waving around a bleeding open wound.
CHORUS
 
 e|-----------|-----------|-----------|-----------|-----------|-------------|
 B|-1---------|-1---------|-1---------|-----------|-1---------|-------------|
 G|-2------(2)|-0-------0-|-2---------|-----------|-2------(2)|-3-----------|
 D|-3-----3---|-2-----2---|-2---------|----2------|-3-----3---|-5-------5---|
 A|-----------|-----------|-0---------|-0-----3---|-----------|-6-----6-----|
 E|-1---------|-0---------|-----------|-----------|-1---------|-6-----------|
 1- 2- 3- 1- 2- 3- 1- 2- 3- 1- 2- 3- 1- 2- 3- 1- 2- 3-----|
 e|-----------|-----------|-----------|-----------|-----------|-------------|
 B|-------3---|-3---------|-1---------|-1---------|-1---------|-3-----------|
 G|-5---------|-5--5------|-2---------|-2---------|-0---------|-3-----------|
 D|-4---------|-4----4--4-|-3---------|-2---------|-2---------|-3-----------|
 A|-5---------|-5-----5---|-----------|-0---------|-3---------|-1-----------|
 E|-----------|-----------|-1---------|-----------|-----------|-------------|
 1- 2- 3- 1- 2- 3- 1- 2- 3- 1- 2- 3- 1- 2- 3- 1- 2- 3-----|
 |-----------------------x2------------------------|
 e|-----------|-----------|-----------|-------------|
 B|-1---------|-1---------|-1---------|-1-----------|
 G|-2------(2)|-0-------0-|-2-------2-|-2-----------|
 D|-3-----3---|-2-----2---|-0-----0---|-2--2--------|
 A|-----------|-----------|-----------|-0-----3-----|
 E|-1---------|-0---------|-----------|-------------|
 1- 2- 3- 1- 2- 3- 1- 2- 3- 1- 2- 3-----|

But you were such a super guy 'til the second you get away from me.
We were like a wishing well and a bolt of electricity.
But we could still support each other. All we gotta do is avoid each other.
Nothing wrong when a song ends in the minor key. (x2)
BRIDGE
 
 e|-----------|-----------|-----------|-------------|
 B|-1---------|----1------|----1------|---1--1------|
 G|-0-------0-|----0----0-|----0----0-|---0--0------|
 D|-2-----2---|----2--2---|----2--2---|---2--2------|
 A|-3---------|-3---------|-3---------|-3--3--3-----|
 E|-----------|-----------|-----------|-------------|
 1- 2- 3- 1- 2- 3- 1- 2- 3- 1- 2- 3-----|
 e|-----------|-----------|-----------|-----------|-----------|-------------|
 B|-----------|-----------|-----------|-----------|-----------|-------------|
 G|-----------|-----------|----3------|----3------|-----------|-------------|
 D|----3------|----3------|----5----5-|----5------|----3------|----3--------|
 A|----5----5-|----5------|-6-----6---|-6-----6---|----5----5-|----5----5---|
 E|-6-----6---|-6-----6---|-----------|-----------|-6-----6---|-6-----6-----|
 1- 2- 3- 1- 2- 3- 1- 2- 3- 1- 2- 3- 1- 2- 3- 1- 2- 3-----|
 e|-----------|-----------|-----------|-----------|-----------|-------------|
 B|-----------|-----------|-----------|-----------|-2---------|----2--------|
 G|-3-----3---|----3------|-5---------|----5------|-2-------2-|----2----2---|
 D|-5-----5---|----5------|-4-------7-|----4------|-4-----4---|-------4-----|
 A|-6--6------|-6-----6---|-5-----5---|-5-----5---|-----------|-------------|
 E|-----------|-----------|-----------|-----------|-2---------|-2-----------|
 1- 2- 3- 1- 2- 3- 1- 2- 3- 1- 2- 3- 1- 2- 3- 1- 2- 3-----|
 e|-----------|-----------|-----------|-----------|-----------|-------------|
 B|-3---------|----3------|----3------|-----------|----0------|-------------|
 G|-1-------1-|----1----1-|----1----1-|-----------|----0----0-|-------------|
 D|-2-----2---|----2--2---|----2--2---|-----------|---------0-|-------------|
 A|-----------|-----------|-----------|-----------|-----------|-------------|
 E|-0---------|-0---------|-0---------|-0--1--2---|-3---------|-3--2--1-----|
 1- 2- 3- 1- 2- 3- 1- 2- 3- 1- 2- 3- 1- 2- 3- 1- 2- 3-----|
 e|-----------|-----------|-----------|-----------|-----------|-------------|
 B|----0------|-----------|----0--0---|----0--0---|----0--0---|-------------|
 G|----1----1-|-----------|------0----|------0----|------0----|-------------|
 D|---------2-|-----------|-----------|-----------|-----------|-------------|
 A|-----------|-----------|-----------|-----------|-----------|-------------|
 E|-0---------|-0--1--2---|-3---------|-----------|-----------|-3-----------|
 1- 2- 3- 1- 2- 3- 1- 2- 3- 1- 2- 3- 1- 2- 3- 1- 2- 3-----|

The lava of a volcano shot up hot from under the sea. One thing leads to another, and
you made an island of me.
VERSE
 
 |-----x4----| |-----x2-------|
 e|-----------|-----------|-----------|--------------|
 B|----0--0---|----1--1---|----0--0---|--------------|
 G|------0--0-|------2--2-|------0--0-|----2--2------| x2
 D|-----------|-----------|-----------|------3--3----|
 A|-----------|-0---------|-----------|--------------|
 E|-3---------|-----------|-3---------|-1------------|
 1- 2- 3- 1- 2- 3- 1- 2- 3- 1- 2- 3------|

(1) And I could liken you to a chemical, the way you made me compound to compound. But
I'm a chemical too, inevitable you and me would mix.
(2) And I could liken you to a lot of things, but I always come around, 'cause in the
end I'm a sensible girl. I know the fiction of the fix.
CHORUS
 
 e|-----------|-----------|-----------|-----------|-----------|-------------|
 B|-1---------|-1---------|-1---------|-----------|-1---------|-------------|
 G|-2------(2)|-0-------0-|-2---------|-----------|-2------(2)|-3-----------|
 D|-3-----3---|-2-----2---|-2---------|----2------|-3-----3---|-5-------5---|
 A|-----------|-----------|-0---------|-0-----3---|-----------|-6-----6-----|
 E|-1---------|-0---------|-----------|-----------|-1---------|-6-----------|
 1- 2- 3- 1- 2- 3- 1- 2- 3- 1- 2- 3- 1- 2- 3- 1- 2- 3-----|
 e|-----------|-----------|-----------|-----------|-----------|-------------|
 B|---------3-|----3------|-1---------|-1---------|-1---------|-------------|
 G|-5-------5-|----5------|-2---------|-2---------|-0---------|-3-----------|
 D|-4-------4-|----4----4-|-3---------|-2---------|-2---------|-3-----------|
 A|-5-----5---|-5-----5---|-----------|-0-----0---|-3-----3---|-1-----1-----|
 E|-----------|-----------|-1-----1---|-----------|-----------|-------------|
 1- 2- 3- 1- 2- 3- 1- 2- 3- 1- 2- 3- 1- 2- 3- 1- 2- 3-----|
 |-----------------------x3------------------------|
 e|-----------|-----------|-----------|-------------|
 B|-1---------|-1---------|-1---------|-1-----------|
 G|-2------(2)|-0-------0-|-2-------2-|-2-----------|
 D|-3-----3---|-2-----2---|-0-----0---|-2--2--------|
 A|-----------|-----------|-----------|-0-----3-----|
 E|-1---------|-0---------|-----------|-------------|
 1- 2- 3- 1- 2- 3- 1- 2- 3- 1- 2- 3-----|
 e|-----------|-----------|-----------|------------------------|
 B|-1---------|-1---------|-1---------|-1-----------(1)--------|
 G|-2------(2)|-0-------0-|-2-------2-|-2-----------------(2)--|
 D|-3-----3---|-2-----2---|-0-----0---|-2--------------(2)-----|
 A|-----------|-----------|-----------|-0----------------------|
 E|-1---------|-0---------|-----------|------------------------|

But you were such a super guy 'til the second you get away from me.
We were like a wishing well and a bolt of electricity.
But we could still support each other. All we gotta do is avoid each other.
Nothing wrong when a song ends in the minor key. (x4)
 
 ------

CHORDS
 
 ------

I could [G]liken you to a werewolf, the way you left me for dead
But I ad[Am]mit that I pro[G]vided a full [F]moon
And I could [G]liken you to a shark, the way you bit off my head
But then a[Am]gain I was [G]waving around a [F]bleeding open [G]wound
F Em (022010)
But you were such a super guy
'Til the [Am]second you get away from me
[F]We were like a [D#]wis[(6653--)]hing well
And a [D7]bol[(-5453-)]t of electricity
But [F]we could still [Am]support each other
[C]All we gotta do is [A#]avoid each other
[F]Nothing wrong when[Em] a song ends [Dm]in the minor [Am]key (x2)
[C]  
[A#]The lava of a vol[D#]cano
[A#]Shot up hot from under the [D#]sea
[D7]One thing leads to a[F#m]nother
[E]And you made an island of me
G ? E ? G
And I could [G]liken you to a chemical, the way you made me compound to compound
But I'm a [Am]chemical too, in[G]evitable [F]you and me would mix
And I could [G]liken you to a lot of things, but I always come around
Cause in the [Am]end I'm a [G]sensible girl. [F]I know the fiction [G]of the fix
F Em (022010)
But you were such a super guy
'Til the [Am]second you get away from me
[F]We were like a [D#]wis[(6653--)]hing well
And a [D7]bol[(-5453-)]t of electricity
But [F]we could still [Am]support each other
[C]All we gotta do is [A#]avoid each other
[F]Nothing wrong when[Em] a song ends [Dm]in the minor [Am]key (x4)

Important: The song above is NOT stored on the Chordie server. The original song is hosted at www.guitaretab.com. Chordie works as a search engine and provides on-the-fly formatting. Chordie does not index songs against artists'/composers' will. To remove this song please click here.

Text color:
Chord color:
Chord grids: 
Font size:    
Page size: 

A# Am C D# D7 Dm E Em F F#m G
Rate #2 of 7 versions

Jango Player

Login - add to songbook

SHARE PAGE  




You need to log in to post comments