Guitar Tabs, Chords and Lyrics
Server problems seems to be fixed. Chordie has been experiencing problems with songs disappearing. These issues now seems to be fixed, but still verifying the fix. If you find anything strange, please email admin@chordie.com.


Allegiance  Firewind

Firewind - Allegiance
Intro Harmony
PM PM PM PM PM PM PM PM
 
 |--3-| |--| |---3---| |---3---| |---3---| 

E S S E E E E E E E E E E
 
 D|--16h--17p-16-----16----------------------------------|
 A|--------------18------17--18--15--17--13--15--12--15--|
 F|------------------------------------------------------|
 C|------------------------------------------------------|
 G|------------------------------------------------------|
 D|------------------------------------------------------|

Guitar 2
PM PM PM PM PM PM PM PM
 
 |--3-| |--| |---3---| |---3---| |---3--| 

E S S E E E E E E E E E E
 
 D|--12h--13p-12-----12---------------------------------|
 A|--------------15------13--15--12--13--10--12--9--10--|
 F|-----------------------------------------------------|
 C|-----------------------------------------------------|
 G|-----------------------------------------------------|
 D|-----------------------------------------------------|

PM PM PM PM PM PM PM PM
 
 |--3-| |--| |---3---| |---3---| |---3---| 

E S S E E E E E E E E E E
 
 ------------------------------------------------------|
 ------------------------------------------------------|
 --13h--14p-13-----13----------------------------------|
 --------------15------14--15--12--14------12----------|
 --------------------------------------15------14--15--|
 ------------------------------------------------------|

PM PM PM PM PM PM PM PM
 
 |--3-| |--| |---3---| |---3--| |--3--| 

E S S E E E E E E E E E E
 
 ----------------------------------------------|
 ----------------------------------------------|
 --9h--10p-9-----9-----------------------------|
 ------------12-----10--12--9--10--7--9--6--7--|
 ----------------------------------------------|
 ----------------------------------------------|

PM PM PM PM PM PM PM PM
 
 |--3-| |--| |---3---| |---3--| |--3--| 

E S S E E E E E E E E E E
 
 ---------------------------------------------------|
 ---------------------------------------------------|
 ---------------------------------------------------|
 ---------------------------------------------------|
 --11h--12p-11-----11-------------------------------|
 --------------13------12--13--10--12--8--10--4--5--|

PM PM PM PM PM PM PM PM
 
 |-3-| |3| |--3--| |--3--| |--3--| 

E S S E E E E E E E E E E
 
 -----------------------------------------|
 -----------------------------------------|
 -----------------------------------------|
 --2h--3p-2----2--------------------------|
 -----------5-----3--5--2--3-----2--------|
 -----------------------------5-----4--5--|

W H. Q
 
 -------------------|----------------------|
 -------------------|----------------------|
 -------------------|----------------------|
 -------------------|--/9------------L\----|
 --2----------------|--/7------------L\----|
 --0----------------|----------------------|

Main Riff
PM PM PM PM PM PM PM PM
 
 |--3--| |--3--| |--3--| |--3--| 

[E] [E] [E] [E] [E] [E] [E] [E] [E] [E] [E] [E]  
 
 --------------------------------------|
 --------------------------------------|
 --------------------------------------|
 --------------------------------------|
 -----------7-----8-----------5-----7--|
 --0--0--0-----0-----0--0--0-----0-----|

PM PM PM PM PM PM PM
 
 |--3--| |---3--| |--3--| |--3--| 

[E] [E] [E] [E] [E] [E] [E] [E] [E] [E] [E] [E]  
 
 ----------------------------------------|
 ----------------------------------------|
 ----------------------------------------|
 ----------------------------------------|
 -----------12-----11-----------5--7--8--|
 --0--0--0------0------0--0--0-----------|

PM PM PM PM PM PM PM PM
 
 |--3--| |--3--| |--3--| |--3--| 

[E] [E] [E] [E] [E] [E] [E] [E] [E] [E] [E] [E]  
 
 --------------------------------------|
 --------------------------------------|
 --------------------------------------|
 --------------------------------------|
 -----------7-----8-----------5-----7--|
 --0--0--0-----0-----0--0--0-----0-----|

PM PM PM PM PM PM PM
 
 |--3--| |--3--| |--3--| |--3--| 

[E] [E] [E] [E] [E] [E] [E] [E] [E] [E] [E] [E]  
 
 --------------------------------------|
 --------------------------------------|
 --------------------------------------|
 --------------------------------------|
 -----------3-----5--------------------|
 --0--0--0-----0-----0--0--0--4--5--7--|

PM PM PM PM PM PM PM PM
 
 |--3--| |--3--| |--3--| |--3--| 

[E] [E] [E] [E] [E] [E] [E] [E] [E] [E] [E] [E]  
 
 --------------------------------------|
 --------------------------------------|
 --------------------------------------|
 --------------------------------------|
 -----------7-----8-----------5-----7--|
 --0--0--0-----0-----0--0--0-----0-----|

PM PM PM PM PM PM PM
 
 |--3--| |---3--| |--3--| |--3--| 

[E] [E] [E] [E] [E] [E] [E] [E] [E] [E] [E] [E]  
 
 ----------------------------------------|
 ----------------------------------------|
 ----------------------------------------|
 ----------------------------------------|
 -----------12-----11-----------5--7--8--|
 --0--0--0------0------0--0--0-----------|

PM PM PM PM PM PM PM PM PM PM PM PM
 
 |--3--| |--3--| |--3--| |--3--| 

[E] [E] [E] [E] [E] [E] [E] [E] [E] [E] [E] [E]  
 
 --------------------------------------|
 --------------------------------------|
 --------------------------------------|
 --------------------------------------|
 --------------------------------------|
 --4--4--4--5--5--5--7--7--7--8--8--8--|

PM PM PM PM PM PM
 
 |--3--| |--3--| 

E E E E E E Q Q
 
 -------------------------------|
 -------------------------------|
 -------------------------------|
 --------------------10----7----|
 --5--5--5--7--7--7---8----5----|
 -------------------------------|

PM PM PM PM PM PM PM PM
 
 |--3--| |--3--| |--3--| |--3--| 

[E] [E] [E] [E] [E] [E] [E] [E] [E] [E] [E] [E]  
 
 --------------------------------------|
 --------------------------------------|
 --------------------------------------|
 --------------------------------------|
 -----------7-----8-----------5-----7--|
 --0--0--0-----0-----0--0--0-----0-----|

PM PM PM PM PM PM PM
 
 |--3--| |---3--| |--3--| |--3--| 

[E] [E] [E] [E] [E] [E] [E] [E] [E] [E] [E] [E]  
 
 ----------------------------------------|
 ----------------------------------------|
 ----------------------------------------|
 ----------------------------------------|
 -----------12-----11-----------5--7--8--|
 --0--0--0------0------0--0--0-----------|

PM PM PM PM PM PM PM PM
 
 |--3--| |--3--| |--3--| |--3--| 

[E] [E] [E] [E] [E] [E] [E] [E] [E] [E] [E] [E]  
 
 --------------------------------------|
 --------------------------------------|
 --------------------------------------|
 --------------------------------------|
 -----------7-----8-----------5-----7--|
 --0--0--0-----0-----0--0--0-----0-----|

PM PM PM PM PM PM PM
 
 |--3--| |--3--| |--3--| |--3--| 

[E] [E] [E] [E] [E] [E] [E] [E] [E] [E] [E] [E]  
 
 --------------------------------------|
 --------------------------------------|
 --------------------------------------|
 --------------------------------------|
 -----------3-----5--------------------|
 --0--0--0-----0-----0--0--0--4--5--7--|

PM PM PM PM PM PM PM PM
 
 |--3--| |--3--| |--3--| |--3--| 

[E] [E] [E] [E] [E] [E] [E] [E] [E] [E] [E] [E]  
 
 --------------------------------------|
 --------------------------------------|
 --------------------------------------|
 --------------------------------------|
 -----------7-----8-----------5-----7--|
 --0--0--0-----0-----0--0--0-----0-----|

PM PM PM PM PM PM PM
 
 |--3--| |---3--| |--3--| |--3--| 

[E] [E] [E] [E] [E] [E] [E] [E] [E] [E] [E] [E]  
 
 ----------------------------------------|
 ----------------------------------------|
 ----------------------------------------|
 ----------------------------------------|
 -----------12-----11-----------5--7--8--|
 --0--0--0------0------0--0--0-----------|

PM PM PM PM PM PM PM PM PM PM PM PM
 
 |--3--| |--3--| |--3--| |--3--| 

[E] [E] [E] [E] [E] [E] [E] [E] [E] [E] [E] [E]  
 
 --------------------------------------|
 --------------------------------------|
 --------------------------------------|
 --------------------------------------|
 --------------------------------------|
 --4--4--4--5--5--5--7--7--7--8--8--8--|

PM PM PM PM PM PM
 
 |--3--| |--3--| 

E E E E E E Q Q H. Q
 
 -------------------------------|--------------------|
 -------------------------------|--------------------|
 -------------------------------|--------------------|
 --------------------10----7----|---------------7----|
 --5--5--5--7--7--7---8----5----|--2------------5----|
 -------------------------------|--0-----------------|

Verse
PM PM PM PM PM PM
 
 |--3--| |--3--| 

Q E E E Q E E E
 
 ------------------------------|
 ------------------------------|
 ------------------------------|
 --9-------------9-------------|
 --7-------------7-------------|
 -------0--0--0-------0--0--0--|

PM PM PM PM PM PM
 
 |--3--| |--3--| 

Q E E E Q E E E
 
 -------------------------------|
 -------------------------------|
 -------------------------------|
 --9-------------10-------------|
 --7--------------8-------------|
 -------0--0--0--------0--0--0--|

PM PM PM PM PM PM
 
 |--3--| |--3--| 

Q E E E Q E E E
 
 ------------------------------|
 ------------------------------|
 ------------------------------|
 --9-------------9-------------|
 --7-------------7-------------|
 -------0--0--0-------0--0--0--|

PM PM PM
 
 |--3--| |---3--| 

Q E E E E E E Q
 
 --------------------------------|
 --------------------------------|
 --------------------------------|
 --9-----------------------------|
 --7-------------5--5p--0--5~----|
 -------0--0--0------------------|

PM PM PM PM PM PM
 
 |--3--| |--3--| 

Q E E E Q E E E
 
 ------------------------------|
 ------------------------------|
 ------------------------------|
 --9-------------9-------------|
 --7-------------7-------------|
 -------0--0--0-------0--0--0--|

PM PM PM PM PM PM
 
 |--3--| |--3--| 

Q E E E Q E E E
 
 -------------------------------|
 -------------------------------|
 -------------------------------|
 --9-------------10-------------|
 --7--------------8-------------|
 -------0--0--0--------0--0--0--|

PM PM PM
|--3--|
H. E E E
 
 ------------------------|
 ------------------------|
 ------------------------|
 --5---------------------|
 --3------------3--3--3--|
 ------------------------|

PM PM PM
 
 |--3--| |---3--| 

Q E E E E E E Q
 
 --------------------------------|
 --------------------------------|
 --------------------------------|
 --4-------------5---------------|
 --3----3--3--3--3s--5--5--5~----|
 --------------------------------|

PM PM PM PM PM PM
 
 |--3--| |--3--| 

Q E E E Q E E E
 
 ------------------------------|
 ------------------------------|
 ------------------------------|
 --9-------------9-------------|
 --7-------------7-------------|
 -------0--0--0-------0--0--0--|

PM PM PM PM PM PM
 
 |--3--| |--3--| 

Q E E E Q E E E
 
 -------------------------------|
 -------------------------------|
 -------------------------------|
 --9-------------10-------------|
 --7--------------8-------------|
 -------0--0--0--------0--0--0--|

PM PM PM PM PM PM
 
 |--3--| |--3--| 

Q E E E Q E E E
 
 ------------------------------|
 ------------------------------|
 ------------------------------|
 --9-------------9-------------|
 --7-------------7-------------|
 -------0--0--0-------0--0--0--|

PM PM PM
 
 |--3--| |---3--| 

Q E E E E E E Q
 
 --------------------------------|
 --------------------------------|
 --------------------------------|
 --9-----------------------------|
 --7-------------5--5p--0--5~----|
 -------0--0--0------------------|

PM PM PM PM PM PM
 
 |--3--| |--3--| 

Q E E E Q E E E
 
 ------------------------------|
 ------------------------------|
 ------------------------------|
 --9-------------9-------------|
 --7-------------7-------------|
 -------0--0--0-------0--0--0--|

PM PM PM PM PM PM
 
 |--3--| |--3--| 

Q E E E Q E E E
 
 -------------------------------|
 -------------------------------|
 -------------------------------|
 --9-------------10-------------|
 --7--------------8-------------|
 -------0--0--0--------0--0--0--|

PM PM PM
|--3--|
H. E E E
 
 ------------------------|
 ------------------------|
 ------------------------|
 --5---------------------|
 --3------------3--3--3--|
 ------------------------|

PM PM PM
 
 |--3--| |---3--| 

Q E E E E E E Q
 
 --------------------------------|
 --------------------------------|
 --------------------------------|
 --4-------------5---------------|
 --3----3--3--3--3s--5--5--5~----|
 --------------------------------|

PM PM PM
|--3--|
H. E E E H Q Q
 
 ------------------------|------------------------|
 ------------------------|------------------------|
 --2---------------------|------------------------|
 --2---------------------|------------------------|
 --0---------------------|--3s--------9-----------|
 ---------------0--0--0--|--1s--------7----19\----|

PM PM PM PM PM PM
 
 |--3--| |--3--| |---3--| |---3---| 

[E] [E] [E] [E] [E] [E] [E] [E] [E] [E] [E] [E]  
 
 ------------------------------------------|
 ------------------------------------------|
 ------------------------------------------|
 ------------------------------------------|
 ---------------------------5h--8p--5h--7--|
 --0--0--0--0--0--0--5h--7-----------------|

PM PM PM PM PM PM
 
 |--3--| |--3--| |---3--| |---3--| 

[E] [E] [E] [E] [E] [E] [E] [E] [E] [E] [E] [E]  
 
 -----------------------------------------|
 -----------------------------------------|
 -----------------------------------------|
 ----------------------------------7p--6--|
 ---------------------------5h--8---------|
 --0--0--0--0--0--0--5h--7----------------|

W W
 
 -------------------|-------------------|
 -------------------|-------------------|
 -------------------|-------------------|
 --7----------------|--5----------------|
 --5----------------|--3----------------|
 -------------------|-------------------|

PM PM PM PM PM PM PM PM PM PM PM PM
 
 |--3--| |--3--| |--3--| |--3--| 

[E] [E] [E] [E] [E] [E] [E] [E] [E] [E] [E] [E]  
 
 --------------------------------------|
 --------------------------------------|
 --------------------------------------|
 --------------------------------------|
 --------------------------------------|
 --7--7--7--7--7--7--7--7--7--7--7--7--|
 |-----3-----| 

Q Q Q H
 
 -------------------------------|
 -------------------------------|
 -------------------------------|
 -------------------------------|
 --12----12----12----12\--------|
 --10----10----10----10\--------|

Chorus
PM PM PM PM PM PM
 
 |--3--| |--3--| |--3--| |--3--| 

[E] [E] [E] [E] [E] [E] [E] [E] [E] [E] [E] [E]  
 
 --------------------------------------|
 --------------------------------------|
 --------------------------------------|
 --------------------------------------|
 --------------------7--7--7--9--9--9--|
 --9--9--9--9--9--9--------------------|

PM PM PM PM PM PM
 
 |--3--| |--3--| |--3--| |--3--| 

[E] [E] [E] [E] [E] [E] [E] [E] [E] [E] [E] [E]  
 
 --------------------------------------|
 --------------------------------------|
 --------------------------------------|
 --------------------------------------|
 --------------------9--9--9--7--7--7--|
 --5--5--5--5--5--5--------------------|

PM PM PM PM PM PM PM PM PM PM PM PM
 
 |--3--| |--3--| |--3--| |--3--| 

[E] [E] [E] [E] [E] [E] [E] [E] [E] [E] [E] [E]  
 
 --------------------------------------|
 --------------------------------------|
 --------------------------------------|
 --------------------------------------|
 --------------------------------------|
 --7--7--7--7--7--7--7--7--7--7--7--7--|

PM PM PM PM PM PM
 
 |--3--| |--3--| |--3--| |--3--| 

[E] [E] [E] [E] [E] [E] [E] [E] [E] [E] [E] [E]  
 
 --------------------------------------|
 --------------------------------------|
 --------------------------------------|
 --------------------------------------|
 --------------------7--7--7-----------|
 --4--4--4--4--4--4-----------7--7--7--|

PM PM PM PM PM PM
 
 |--3--| |--3--| |--3--| |--3--| 

[E] [E] [E] [E] [E] [E] [E] [E] [E] [E] [E] [E]  
 
 --------------------------------------|
 --------------------------------------|
 --------------------------------------|
 --------------------------------------|
 --------------------7--7--7--9--9--9--|
 --9--9--9--9--9--9--------------------|

PM PM PM PM PM PM
 
 |--3--| |--3--| |--3--| |--3--| 

[E] [E] [E] [E] [E] [E] [E] [E] [E] [E] [E] [E]  
 
 --------------------------------------|
 --------------------------------------|
 --------------------------------------|
 --------------------------------------|
 --------------------9--9--9--7--7--7--|
 --5--5--5--5--5--5--------------------|

PM PM PM PM PM PM PM PM PM PM PM PM
 
 |--3--| |--3--| |--3--| |--3--| 

[E] [E] [E] [E] [E] [E] [E] [E] [E] [E] [E] [E]  
 
 --------------------------------------|
 --------------------------------------|
 --------------------------------------|
 --------------------------------------|
 --------------------------------------|
 --7--7--7--7--7--7--7--7--7--7--7--7--|

PM PM PM PM PM PM PM PM PM PM PM PM
 
 |--3--| |--3--| |--3--| |--3--| 

[E] [E] [E] [E] [E] [E] [E] [E] [E] [E] [E] [E]  
 
 --------------------------------------|
 --------------------------------------|
 --------------------------------------|
 --------------------------------------|
 --------------------------------------|
 --4--4--4--4--4--4--2--2--2--0--0--0--|

PM PM PM PM PM PM
 
 |--3--| |--3--| |--3--| |--3--| 

[E] [E] [E] [E] [E] [E] [E] [E] [E] [E] [E] [E]  
 
 --------------------------------------|
 --------------------------------------|
 --------------------------------------|
 --------------------------------------|
 --------------------7--7--7--9--9--9--|
 --9--9--9--9--9--9--------------------|

PM PM PM PM PM PM
 
 |--3--| |--3--| |--3--| |--3--| 

[E] [E] [E] [E] [E] [E] [E] [E] [E] [E] [E] [E]  
 
 --------------------------------------|
 --------------------------------------|
 --------------------------------------|
 --------------------------------------|
 --------------------9--9--9--7--7--7--|
 --5--5--5--5--5--5--------------------|

PM PM PM PM PM PM PM PM PM PM PM PM
 
 |--3--| |--3--| |--3--| |--3--| 

[E] [E] [E] [E] [E] [E] [E] [E] [E] [E] [E] [E]  
 
 --------------------------------------|
 --------------------------------------|
 --------------------------------------|
 --------------------------------------|
 --------------------------------------|
 --7--7--7--7--7--7--7--7--7--7--7--7--|

PM PM PM PM PM PM
 
 |--3--| |--3--| |--3--| |--3--| 

[E] [E] [E] [E] [E] [E] [E] [E] [E] [E] [E] [E]  
 
 --------------------------------------|
 --------------------------------------|
 --------------------------------------|
 --------------------------------------|
 --------------------7--7--7-----------|
 --4--4--4--4--4--4-----------7--7--7--|

PM PM PM PM PM PM PM PM PM PM PM PM
 
 |--3--| |--3--| |--3--| |--3--| 

[E] [E] [E] [E] [E] [E] [E] [E] [E] [E] [E] [E]  
 
 --------------------------------------|
 --------------------------------------|
 --------------------------------------|
 --------------------------------------|
 --------------------------------------|
 --5--5--5--5--5--5--5--5--5--5--5--5--|
 |----3----| 

E Q. Q Q Q
 
 ---------------------------|
 ---------------------------|
 ---------------------------|
 ----------------------9----|
 --6---------7----6----7----|
 --4---------5----4---------|

Riff
PM PM PM PM PM PM PM PM
 
 |--3--| |--3--| |--3--| |--3--| 

[E] [E] [E] [E] [E] [E] [E] [E] [E] [E] [E] [E]  
 
 --------------------------------------|
 --------------------------------------|
 --------------------------------------|
 --------------------------------------|
 -----------7-----8-----------5-----7--|
 --0--0--0-----0-----0--0--0-----0-----|

PM PM PM PM PM PM PM
 
 |--3--| |---3--| |--3--| |--3--| 

[E] [E] [E] [E] [E] [E] [E] [E] [E] [E] [E] [E]  
 
 ----------------------------------------|
 ----------------------------------------|
 ----------------------------------------|
 ----------------------------------------|
 -----------12-----11-----------5--7--8--|
 --0--0--0------0------0--0--0-----------|

PM PM PM PM PM PM PM PM
 
 |--3--| |--3--| |--3--| |--3--| 

[E] [E] [E] [E] [E] [E] [E] [E] [E] [E] [E] [E]  
 
 --------------------------------------|
 --------------------------------------|
 --------------------------------------|
 --------------------------------------|
 -----------7-----8-----------5-----7--|
 --0--0--0-----0-----0--0--0-----0-----|

PM PM PM PM PM PM PM
 
 |--3--| |--3--| |--3--| |--3--| 

[E] [E] [E] [E] [E] [E] [E] [E] [E] [E] [E] [E]  
 
 --------------------------------------|
 --------------------------------------|
 --------------------------------------|
 --------------------------------------|
 -----------3-----5--------------------|
 --0--0--0-----0-----0--0--0--4--5--7--|

PM PM PM PM PM PM PM PM
 
 |--3--| |--3--| |--3--| |--3--| 

[E] [E] [E] [E] [E] [E] [E] [E] [E] [E] [E] [E]  
 
 --------------------------------------|
 --------------------------------------|
 --------------------------------------|
 --------------------------------------|
 -----------7-----8-----------5-----7--|
 --0--0--0-----0-----0--0--0-----0-----|

PM PM PM PM PM PM PM
 
 |--3--| |---3--| |--3--| |--3--| 

[E] [E] [E] [E] [E] [E] [E] [E] [E] [E] [E] [E]  
 
 ----------------------------------------|
 ----------------------------------------|
 ----------------------------------------|
 ----------------------------------------|
 -----------12-----11-----------5--7--8--|
 --0--0--0------0------0--0--0-----------|

PM PM PM PM PM PM PM PM PM PM PM PM
 
 |--3--| |--3--| |--3--| |--3--| 

[E] [E] [E] [E] [E] [E] [E] [E] [E] [E] [E] [E]  
 
 --------------------------------------|
 --------------------------------------|
 --------------------------------------|
 --------------------------------------|
 --------------------------------------|
 --4--4--4--5--5--5--7--7--7--8--8--8--|

PM PM PM PM PM PM
 
 |--3--| |--3--| 

E E E E E E Q Q
 
 -------------------------------|
 -------------------------------|
 -------------------------------|
 --------------------10----7----|
 --5--5--5--7--7--7---8----5----|
 -------------------------------|

Verse
PM PM PM PM PM PM
 
 |--3--| |--3--| 

Q E E E Q E E E
 
 ------------------------------|
 ------------------------------|
 ------------------------------|
 --9-------------9-------------|
 --7-------------7-------------|
 -------0--0--0-------0--0--0--|

PM PM PM PM PM PM
 
 |--3--| |--3--| 

Q E E E Q E E E
 
 -------------------------------|
 -------------------------------|
 -------------------------------|
 --9-------------10-------------|
 --7--------------8-------------|
 -------0--0--0--------0--0--0--|

PM PM PM PM PM PM
 
 |--3--| |--3--| 

Q E E E Q E E E
 
 ------------------------------|
 ------------------------------|
 ------------------------------|
 --9-------------9-------------|
 --7-------------7-------------|
 -------0--0--0-------0--0--0--|

PM PM PM
 
 |--3--| |---3--| 

Q E E E E E E Q
 
 --------------------------------|
 --------------------------------|
 --------------------------------|
 --9-----------------------------|
 --7-------------5--5p--0--5~----|
 -------0--0--0------------------|

PM PM PM PM PM PM
 
 |--3--| |--3--| 

Q E E E Q E E E
 
 ------------------------------|
 ------------------------------|
 ------------------------------|
 --9-------------9-------------|
 --7-------------7-------------|
 -------0--0--0-------0--0--0--|

PM PM PM PM PM PM
 
 |--3--| |--3--| 

Q E E E Q E E E
 
 -------------------------------|
 -------------------------------|
 -------------------------------|
 --9-------------10-------------|
 --7--------------8-------------|
 -------0--0--0--------0--0--0--|

PM PM PM
|--3--|
H. E E E
 
 ------------------------|
 ------------------------|
 ------------------------|
 --5---------------------|
 --3------------3--3--3--|
 ------------------------|

PM PM PM
 
 |--3--| |---3--| 

Q E E E E E E Q
 
 --------------------------------|
 --------------------------------|
 --------------------------------|
 --4-------------5---------------|
 --3----3--3--3--3s--5--5--5~----|
 --------------------------------|

PM PM PM PM PM PM
 
 |--3--| |--3--| 

Q E E E Q E E E
 
 ------------------------------|
 ------------------------------|
 ------------------------------|
 --9-------------9-------------|
 --7-------------7-------------|
 -------0--0--0-------0--0--0--|

PM PM PM PM PM PM
 
 |--3--| |--3--| 

Q E E E Q E E E
 
 -------------------------------|
 -------------------------------|
 -------------------------------|
 --9-------------10-------------|
 --7--------------8-------------|
 -------0--0--0--------0--0--0--|

PM PM PM PM PM PM
 
 |--3--| |--3--| 

Q E E E Q E E E
 
 ------------------------------|
 ------------------------------|
 ------------------------------|
 --9-------------9-------------|
 --7-------------7-------------|
 -------0--0--0-------0--0--0--|

PM PM PM
 
 |--3--| |---3--| 

Q E E E E E E Q
 
 --------------------------------|
 --------------------------------|
 --------------------------------|
 --9-----------------------------|
 --7-------------5--5p--0--5~----|
 -------0--0--0------------------|

PM PM PM PM PM PM
 
 |--3--| |--3--| 

Q E E E Q E E E
 
 ------------------------------|
 ------------------------------|
 ------------------------------|
 --9-------------9-------------|
 --7-------------7-------------|
 -------0--0--0-------0--0--0--|

PM PM PM PM PM PM
 
 |--3--| |--3--| 

Q E E E Q E E E
 
 -------------------------------|
 -------------------------------|
 -------------------------------|
 --9-------------10-------------|
 --7--------------8-------------|
 -------0--0--0--------0--0--0--|

PM PM PM
|--3--|
H. E E E
 
 ------------------------|
 ------------------------|
 ------------------------|
 --5---------------------|
 --3------------3--3--3--|
 ------------------------|

PM PM PM
 
 |--3--| |---3--| 

Q E E E E E E Q
 
 --------------------------------|
 --------------------------------|
 --------------------------------|
 --4-------------5---------------|
 --3----3--3--3--3s--5--5--5~----|
 --------------------------------|

PM PM PM
|--3--|
H. E E E H Q Q
 
 ------------------------|------------------------|
 ------------------------|------------------------|
 --2---------------------|------------------------|
 --2---------------------|------------------------|
 --0---------------------|--3s--------9-----------|
 ---------------0--0--0--|--1s--------7----19\----|

PM PM PM PM PM PM
 
 |--3--| |--3--| |---3--| |---3---| 

[E] [E] [E] [E] [E] [E] [E] [E] [E] [E] [E] [E]  
 
 ------------------------------------------|
 ------------------------------------------|
 ------------------------------------------|
 ------------------------------------------|
 ---------------------------5h--8p--5h--7--|
 --0--0--0--0--0--0--5h--7-----------------|

PM PM PM PM PM PM
 
 |--3--| |--3--| |---3--| |---3--| 

[E] [E] [E] [E] [E] [E] [E] [E] [E] [E] [E] [E]  
 
 -----------------------------------------|
 -----------------------------------------|
 -----------------------------------------|
 ----------------------------------7p--6--|
 ---------------------------5h--8---------|
 --0--0--0--0--0--0--5h--7----------------|

W W
 
 -------------------|-------------------|
 -------------------|-------------------|
 -------------------|-------------------|
 --7----------------|--5----------------|
 --5----------------|--3----------------|
 -------------------|-------------------|

PM PM PM PM PM PM PM PM PM PM PM PM
 
 |--3--| |--3--| |--3--| |--3--| 

[E] [E] [E] [E] [E] [E] [E] [E] [E] [E] [E] [E]  
 
 --------------------------------------|
 --------------------------------------|
 --------------------------------------|
 --------------------------------------|
 --------------------------------------|
 --7--7--7--7--7--7--7--7--7--7--7--7--|
 |-----3-----| 

Q Q Q H
 
 -------------------------------|
 -------------------------------|
 -------------------------------|
 -------------------------------|
 --12----12----12----12\--------|
 --10----10----10----10\--------|

Chorus
PM PM PM PM PM PM
 
 |--3--| |--3--| |--3--| |--3--| 

[E] [E] [E] [E] [E] [E] [E] [E] [E] [E] [E] [E]  
 
 --------------------------------------|
 --------------------------------------|
 --------------------------------------|
 --------------------------------------|
 --------------------7--7--7--9--9--9--|
 --9--9--9--9--9--9--------------------|

PM PM PM PM PM PM
 
 |--3--| |--3--| |--3--| |--3--| 

[E] [E] [E] [E] [E] [E] [E] [E] [E] [E] [E] [E]  
 
 --------------------------------------|
 --------------------------------------|
 --------------------------------------|
 --------------------------------------|
 --------------------9--9--9--7--7--7--|
 --5--5--5--5--5--5--------------------|

PM PM PM PM PM PM PM PM PM PM PM PM
 
 |--3--| |--3--| |--3--| |--3--| 

[E] [E] [E] [E] [E] [E] [E] [E] [E] [E] [E] [E]  
 
 --------------------------------------|
 --------------------------------------|
 --------------------------------------|
 --------------------------------------|
 --------------------------------------|
 --7--7--7--7--7--7--7--7--7--7--7--7--|

PM PM PM PM PM PM
 
 |--3--| |--3--| |--3--| |--3--| 

[E] [E] [E] [E] [E] [E] [E] [E] [E] [E] [E] [E]  
 
 --------------------------------------|
 --------------------------------------|
 --------------------------------------|
 --------------------------------------|
 --------------------7--7--7-----------|
 --4--4--4--4--4--4-----------7--7--7--|

PM PM PM PM PM PM
 
 |--3--| |--3--| |--3--| |--3--| 

[E] [E] [E] [E] [E] [E] [E] [E] [E] [E] [E] [E]  
 
 --------------------------------------|
 --------------------------------------|
 --------------------------------------|
 --------------------------------------|
 --------------------7--7--7--9--9--9--|
 --9--9--9--9--9--9--------------------|

PM PM PM PM PM PM
 
 |--3--| |--3--| |--3--| |--3--| 

[E] [E] [E] [E] [E] [E] [E] [E] [E] [E] [E] [E]  
 
 --------------------------------------|
 --------------------------------------|
 --------------------------------------|
 --------------------------------------|
 --------------------9--9--9--7--7--7--|
 --5--5--5--5--5--5--------------------|

PM PM PM PM PM PM PM PM PM PM PM PM
 
 |--3--| |--3--| |--3--| |--3--| 

[E] [E] [E] [E] [E] [E] [E] [E] [E] [E] [E] [E]  
 
 --------------------------------------|
 --------------------------------------|
 --------------------------------------|
 --------------------------------------|
 --------------------------------------|
 --7--7--7--7--7--7--7--7--7--7--7--7--|

PM PM PM PM PM PM PM PM PM PM PM PM
 
 |--3--| |--3--| |--3--| |--3--| 

[E] [E] [E] [E] [E] [E] [E] [E] [E] [E] [E] [E]  
 
 --------------------------------------|
 --------------------------------------|
 --------------------------------------|
 --------------------------------------|
 --------------------------------------|
 --4--4--4--4--4--4--2--2--2--0--0--0--|

PM PM PM PM PM PM
 
 |--3--| |--3--| |--3--| |--3--| 

[E] [E] [E] [E] [E] [E] [E] [E] [E] [E] [E] [E]  
 
 --------------------------------------|
 --------------------------------------|
 --------------------------------------|
 --------------------------------------|
 --------------------7--7--7--9--9--9--|
 --9--9--9--9--9--9--------------------|

PM PM PM PM PM PM
 
 |--3--| |--3--| |--3--| |--3--| 

[E] [E] [E] [E] [E] [E] [E] [E] [E] [E] [E] [E]  
 
 --------------------------------------|
 --------------------------------------|
 --------------------------------------|
 --------------------------------------|
 --------------------9--9--9--7--7--7--|
 --5--5--5--5--5--5--------------------|

PM PM PM PM PM PM PM PM PM PM PM PM
 
 |--3--| |--3--| |--3--| |--3--| 

[E] [E] [E] [E] [E] [E] [E] [E] [E] [E] [E] [E]  
 
 --------------------------------------|
 --------------------------------------|
 --------------------------------------|
 --------------------------------------|
 --------------------------------------|
 --7--7--7--7--7--7--7--7--7--7--7--7--|

PM PM PM PM PM PM
 
 |--3--| |--3--| |--3--| |--3--| 

[E] [E] [E] [E] [E] [E] [E] [E] [E] [E] [E] [E]  
 
 --------------------------------------|
 --------------------------------------|
 --------------------------------------|
 --------------------------------------|
 --------------------7--7--7-----------|
 --4--4--4--4--4--4-----------7--7--7--|

PM PM PM PM PM PM PM PM PM PM PM PM
 
 |--3--| |--3--| |--3--| |--3--| 

[E] [E] [E] [E] [E] [E] [E] [E] [E] [E] [E] [E]  
 
 --------------------------------------|
 --------------------------------------|
 --------------------------------------|
 --------------------------------------|
 --------------------------------------|
 --5--5--5--5--5--5--5--5--5--5--5--5--|
 |----3----| 

E Q. Q Q Q W
 
 ---------------------------|-------------------|
 ---------------------------|-------------------|
 ---------------------------|-------------------|
 ----------------------9----|--2----------------|
 --6---------7----6----7----|--2----------------|
 --4---------5----4---------|--0----------------|

Breakdown thing
W W
 
 -------------------|-------------------|
 -------------------|-------------------|
 -------------------|-------------------|
 --L----------------|-------------------|
 --L----------------|--8----------------|
 --L----------------|--6----------------|

PM PM PM PM PM PM
 
 |--3--| |--3--| 

H E E E E E E Q H.
 
 -----------------------------|---------------------|
 -----------------------------|---------------------|
 -----------------------------|---------------------|
 -----------------------------|--2----Ls------------|
 --7--------------------------|--2----Ls------------|
 --5--------6--5--3--5--3--1--|--0----x-------------|

H. E E W
 
 ----------------------|-------------------|
 ----------------------|-------------------|
 ----------------------|-------------------|
 --9------------L--L\--|-------------------|
 --7------------L--L\--|--8----------------|
 ----------------------|--6----------------|

PM PM PM PM PM PM PM PM PM PM PM PM
 
 |--3--| |--3--| |--3--| |--3--| 

[E] [E] [E] [E] [E] [E] [E] [E] [E] [E] [E] [E]  
 
 --------------------------------------|
 --------------------------------------|
 --------------------------------------|
 --------------------------------------|
 --------------------------------------|
 --6--5--3--5--3--1--6--5--3--5--3--1--|

PM PM PM PM PM PM
 
 |--3--| |--3--| |----3----| |---3--| 

E E E E E E S S E E E E E
 
 -------------------------------------------|
 -------------------------------------------|
 -------------------------------------------|
 -------------------------------------------|
 --------------------7h-8p-7------7--8--10--|
 --0--0--0--0--0--0-----------10------------|

PM PM PM PM PM PM
 
 |--3--| |--3--| |-----3----| |----3----| 

E E E E E E S S E E S S E E
 
 -----------------------------------------------|
 -----------------------------------------------|
 -----------------------------------------------|
 -----------------------------------------------|
 --------------------8h-10p-8------7h-8p-7------|
 --0--0--0--0--0--0------------10-----------10--|

PM PM PM PM PM
 
 |--3--| |--3--| |----3----| |---3--| 

E E E E E E S S E E E E E
 
 -------------------------------------------|
 -------------------------------------------|
 -------------------------------------------|
 -------------------------------------------|
 --7-----------------7h-8p-7------7--8--10--|
 -----0--0--0--0--0-----------10------------|
 |--3--| |--3--| |--3--| |--3--| 

[E] [E] [E] [E] [E] [E] [E] [E] [E] [E] [E] [E]  
 
 --------------------------------------|
 --------------------------------------|
 -----------------8--9--8--------------|
 -----------7--9-----------9--7--------|
 -----6--9-----------------------9--7--|
 --7-----------------------------------|

PM PM PM PM PM PM
 
 |--3--| |--3--| |----3----| |---3--| 

E E E E E E S S E E E E E
 
 -------------------------------------------|
 -------------------------------------------|
 -------------------------------------------|
 -------------------------------------------|
 --------------------7h-8p-7------7--8--10--|
 --0--0--0--0--0--0-----------10------------|

PM PM PM PM PM PM
 
 |--3--| |--3--| |-----3----| |----3----| 

E E E E E E S S E E S S E E
 
 -----------------------------------------------|
 -----------------------------------------------|
 -----------------------------------------------|
 -----------------------------------------------|
 --------------------8h-10p-8------7h-8p-7------|
 --0--0--0--0--0--0------------10-----------10--|

PM PM PM PM PM
 
 |--3--| |--3--| |----3----| |---3--| 

E E E E E E S S E E E E E
 
 -------------------------------------------|
 -------------------------------------------|
 -------------------------------------------|
 -------------------------------------------|
 --7-----------------7h-8p-7------7--8--10--|
 -----0--0--0--0--0-----------10------------|

H Q Q
 
 ----------------------|
 ----------------------|
 ----------------------|
 ----------------------|
 ----------------------|
 --7--------6----L\----|

PM PM PM PM PM PM
 
 |--3--| |--3--| |----3----| |---3--| 

E E E E E E S S E E E E E
 
 -------------------------------------------|
 -------------------------------------------|
 -------------------------------------------|
 -------------------------------------------|
 --------------------7h-8p-7------7--8--10--|
 --0--0--0--0--0--0-----------10------------|

PM PM PM PM PM PM
 
 |--3--| |--3--| |-----3----| |----3----| 

E E E E E E S S E E S S E E
 
 -----------------------------------------------|
 -----------------------------------------------|
 -----------------------------------------------|<br /

Important: The song above is NOT stored on the Chordie server. The original song is hosted at www.guitaretab.com. Chordie works as a search engine and provides on-the-fly formatting. Chordie does not index songs against artists'/composers' will. To remove this song please click here.

Text color:
Chord color:
Chord grids: 
Font size:    
Page size: 

E
Rate #1 of 3 versions

Jango Player

Login - add to songbook

SHARE PAGE  



You need to log in to post comments