Guitar Tabs, Chords and Lyrics
Server problems seems to be fixed. Chordie has been experiencing problems with songs disappearing. These issues now seems to be fixed, but still verifying the fix. If you find anything strange, please email admin@chordie.com.


Death Valley Queen  Flogging Molly

As recorded by Flogging Molly
(From the 2002 Album DRUNKEN LULLABIES)
Transcribed by Robbie Annese
Words by Dave King Music by Flogging Molly
[G]3 2 0 0 0 3
[C]x 3 2 0 1 0
[D]x x 0 2 3 2
[G/D]x x 0 0 0 3
[D7]x x 0 2 1 2
[G5]3 5 5 x x x
G/DXII
x x 12 12 12 x
Gtr I (E A D G B E) - 'Dave King'
Gtr II (E A D G B E) - 'Matt Hensley'
Gtr III (G D A E) - 'Bridget Regan'
Gtr IV (E A D G B E) - 'Dennis Casey'
Intro
Q=156
6[G]/8[D] [G] [C]
Gtr I
Q E E E E Q E E E E Q E E E E Q E E E E
| | | | | | | | | | | | | | | | | | | |
[/] [/] [/] [/] [/] [/] [/] [/] [/] [/] [/] [/] [/] [/] [/] [/] [/] [/] [/] [/] 
Gtr IV
H. H. H. H.
 
 |---------------|-------------|-------------|-------------|
 |---------------|-------------|-------------|-------------|
 |---------------|-7-----------|-------------|-5-----------|
 |--5------------|-7-----------|-5-----------|-5-----------|
 |--5------------|-5-----------|-5-----------|-3-----------|
 |--3------------|-------------|-3-----------|-------------|

|
| Gtr II
| Q E Q. H Q Q Q Q H E E
 
 |---------------|---------7---|-7---5---7---|-8-------7-8-|
 |--8---7-8------|-------------|-------------|-------------|
 |---------------|-7-----------|-------------|-------------|
 |---------------|-------------|-------------|-------------|
 |---------------|-------------|-------------|-------------|
 |---------------|-------------|-------------|-------------|

|
| Gtr III
| ~~~ ~~~~~~~~~~~~~~~~~~~~~~~~~~~~~~~~~~~~~~~~
| Q E Q. H Q Q Q Q H E E
 
 |---------------|-------------|-------------|-------------|
 |---------------|---------2---|-2---0---2---|-3-------5-3-|
 |-/5---4-5------|-0-----------|-------------|-------------|
 |---------------|-------------|-------------|-------------|

[G]Q E E E E [D]Q E E E E [G]Q E E E E [D] Q E E E E
| | | | | | | | | | | | | | | | | | | |
[/] [/] [/] [/] [/] [/] [/] [/] [/] [/] [/] [/] [/] [/] [/] [/] [/] [/] [/] [/] 
H. H. H. H.
 
 |-------------|-------------|-------------|----------------|
 |-------------|-------------|-------------|----------------|
 |-------------|-7-----------|-------------|--7-------------|
 |-5-----------|-7-----------|-5-----------|--7-------------|
 |-5-----------|-5-----------|-5-----------|--5-------------|
 |-3-----------|-------------|-3-----------|----------------|

|
| Q Q Q H Q Q Q Q H Q
 
 |-7---5-------|-------------|-------------|----------------|
 |---------8---|-8-------8---|-8---7---8---|-10-------------|
 |-------------|-------------|-------------|----------7-----|
 |-------------|-------------|-------------|----------------|
 |-------------|-------------|-------------|----------------|
 |-------------|-------------|-------------|----------------|

|
| ~~~~~~~~~~~~~~~~~~~~~~~~~~~~~~~~~~~~~~~~~~~~~~~~~~~~~
| Q Q Q H Q Q Q Q H Q
 
 |-------------|-------------|-------------|----------------|
 |-2---0-------|-------------|-------------|--0-------------|
 |---------5---|-5-------5---|-5---4---5---|----------0-----|
 |-------------|-------------|-------------|----------------|

[G] Q E E E E [D]Q E E E E [G]Q E E E E [C]Q E E E E
| | | | | | | | | | | | | | | | | | | |
[/] [/] [/] [/] [/] [/] [/] [/] [/] [/] [/] [/] [/] [/] [/] [/] [/] [/] [/] [/] 
H. H. H. H.
 
 |---------------|-------------|-------------|-------------|
 |---------------|-------------|-------------|-------------|
 |---------------|-7-----------|-------------|-5-----------|
 |--5------------|-7-----------|-5-----------|-5-----------|
 |--5------------|-5-----------|-5-----------|-3-----------|
 |--3------------|-------------|-3-----------|-------------|

|
| Q E Q. H Q Q Q Q H E E
 
 |---------------|---------7---|-7---5---7---|-8-------7-8-|
 |--8---7-8------|-------------|-------------|-------------|
 |---------------|-7-----------|-------------|-------------|
 |---------------|-------------|-------------|-------------|
 |---------------|-------------|-------------|-------------|
 |---------------|-------------|-------------|-------------|

|
| ~~~ ~~~~~~~~~~~~~~~~~~~~~~~~~~~~~~~~~~~~~~~~
| Q E Q. H Q Q Q Q H E E
 
 |---------------|-------------|-------------|-------------|
 |---------------|---------2---|-2---0---2---|-3-------5-3-|
 |-/5---4-5------|-0-----------|-------------|-------------|
 |---------------|-------------|-------------|-------------|

[G]Q E E E E [D]Q E E E E [G]Q E E E E [G] H.
| | | | | | | | | | | | | | | |
[/] [/] [/] [/] [/] [/] [/] [/] [/] [/] [/] [/] [/] [/] [/] [/] 
H. H. H. +H.
 
 |-------------|-------------|-------------|--------|
 |-------------|-------------|-------------|--------|
 |-------------|-7-----------|-------------|--------|
 |-5-----------|-7-----------|-5-----------|-(5)----|
 |-5-----------|-5-----------|-5-----------|-(5)----|
 |-3-----------|-------------|-3-----------|-(3)----|

|
| Q Q Q Q E E Q H. +H.
 
 |-7---5-------|-5---7-5-----|-------------|--------|
 |---------8---|---------7---|-8-----------|-(8)----|
 |-------------|-------------|-------------|--------|
 |-------------|-------------|-------------|--------|
 |-------------|-------------|-------------|--------|
 |-------------|-------------|-------------|--------|

|
| ~~~~~~~~~~~~~~~~~ ~~~~~~~~~~~~~~~~~~~~~~~~
| Q Q Q Q E E Q H. +H.
 
 |-------------|-------------|-------------|--------|
 |-2---0-------|-0---2-0-----|-------------|--------|
 |---------5---|---------4---|-5-----------|-(5)----|
 |-------------|-------------|-------------|--------|

Verse
[G]Q E E E E [D]Q E E E E [G]Q E E E E [C]Q E E E E
| | | | | | | | | | | | | | | | | | | |
[/] [/] [/] [/] [/] [/] [/] [/] [/] [/] [/] [/] [/] [/] [/] [/] [/] [/] [/] [/] 
Gtr II
Q E Q. H. Q Q Q H E E
 
 |-------------|-------------|-7--5---7---|-8------7-8-|
 |-8--7-8------|-------------|------------|------------|
 |-------------|-7-----------|------------|------------|
 |-------------|-------------|------------|------------|
 |-------------|-------------|------------|------------|
 |-------------|-------------|------------|------------|

[G]Q E E E E [D]Q E E E E [G]Q E E E E [D] Q E E E E
| | | | | | | | | | | | | | | | | | | |
[/] [/] [/] [/] [/] [/] [/] [/] [/] [/] [/] [/] [/] [/] [/] [/] [/] [/] [/] [/] 
Q Q Q H. Q Q Q H.
 
 |-7--5-------|-------------|------------|-----------------|
 |--------8---|-8-----------|-8--7---8---|-10--------------|
 |------------|-------------|------------|-----------------|
 |------------|-------------|------------|-----------------|
 |------------|-------------|------------|-----------------|
 |------------|-------------|------------|-----------------|

[G]Q E E E E [D]Q E E E E [G]Q E E E E [C]Q E E E E
| | | | | | | | | | | | | | | | | | | |
[/] [/] [/] [/] [/] [/] [/] [/] [/] [/] [/] [/] [/] [/] [/] [/] [/] [/] [/] [/] 
Q E Q. H. Q Q Q H E E
 
 |-------------|-------------|-7--5---7---|-8------7-8-|
 |-8--7-8------|-------------|------------|------------|
 |-------------|-7-----------|------------|------------|
 |-------------|-------------|------------|------------|
 |-------------|-------------|------------|------------|
 |-------------|-------------|------------|------------|

[G]Q E E E E [D]Q E E E E [G]Q E E E E [G] Q E E E E
| | | | | | | | | | | | | | | | | | | |
[/] [/] [/] [/] [/] [/] [/] [/] [/] [/] [/] [/] [/] [/] [/] [/] [/] [/] [/] [/] 
Q Q Q Q +S S S S Q H. +H.
 
 |-7--5-------|-5--(5)-5-7-5-----|-------------|----------------|
 |--------8---|--------------7---|-8-----------|-(8)------------|
 |------------|------------------|-------------|----------------|
 |------------|------------------|-------------|----------------|
 |------------|------------------|-------------|----------------|
 |------------|------------------|-------------|----------------|

[G]Q E E E E [D]Q E E E E [G]Q E E E E [C]Q E E E E
| | | | | | | | | | | | | | | | | | | |
[/] [/] [/] [/] [/] [/] [/] [/] [/] [/] [/] [/] [/] [/] [/] [/] [/] [/] [/] [/] 
Q E Q. H. Q Q Q H E E
 
 |-------------|-------------|-7--5---7---|-8------7-8-|
 |-8--7-8------|-------------|------------|------------|
 |-------------|-7-----------|------------|------------|
 |-------------|-------------|------------|------------|
 |-------------|-------------|------------|------------|
 |-------------|-------------|------------|------------|

[G]Q E E E E [D]Q E E E E [G]Q E E E E [D] Q E E E E
| | | | | | | | | | | | | | | | | | | |
[/] [/] [/] [/] [/] [/] [/] [/] [/] [/] [/] [/] [/] [/] [/] [/] [/] [/] [/] [/] 
Q Q Q H. Q Q Q H.
 
 |-7--5-------|-------------|------------|-----------------|
 |--------8---|-8-----------|-8--7---8---|-10--------------|
 |------------|-------------|------------|-----------------|
 |------------|-------------|------------|-----------------|
 |------------|-------------|------------|-----------------|
 |------------|-------------|------------|-----------------|

[G]Q E E E E [D]Q E E E E [G]Q E E E E [C]Q E E E E
| | | | | | | | | | | | | | | | | | | |
[/] [/] [/] [/] [/] [/] [/] [/] [/] [/] [/] [/] [/] [/] [/] [/] [/] [/] [/] [/] 
Q E Q. H. Q Q Q H E E
 
 |-------------|-------------|-7--5---7---|-8------7-8-|
 |-8--7-8------|-------------|------------|------------|
 |-------------|-7-----------|------------|------------|
 |-------------|-------------|------------|------------|
 |-------------|-------------|------------|------------|
 |-------------|-------------|------------|------------|

[G]Q E E E E [D]Q E E E E [G]Q E E E E [G] Q E E E E
| | | | | | | | | | | | | | | | | | | |
[/] [/] [/] [/] [/] [/] [/] [/] [/] [/] [/] [/] [/] [/] [/] [/] [/] [/] [/] [/] 
Q Q Q Q Q Q H. +H.
 
 |-7--5-------|-5--7---5---|-------------|-----------------|
 |--------8---|------------|-8-----------|-(8)-------------|
 |------------|------------|-------------|-----------------|
 |------------|------------|-------------|-----------------|
 |------------|------------|-------------|-----------------|
 |------------|------------|-------------|-----------------|

Chorus Part
[D]Q E E E E [G]Q E E E E [C]Q E E E E [D]Q E E E E
| | | | | | | | | | | | | | | | | | | |
[/] [/] [/] [/] [/] [/] [/] [/] [/] [/] [/] [/] [/] [/] [/] [/] [/] [/] [/] [/] 
Gtr IV
H. H. H. H.
 
 |-------------|-------------|--------------|-------------|
 |-------------|-------------|--------------|-------------|
 |-7-----------|-------------|-5------------|-7-----------|
 |-7-----------|-5-----------|-5------------|-7-----------|
 |-5-----------|-5-----------|-3------------|-5-----------|
 |-------------|-3-----------|--------------|-------------|

|
| Gtr II
| H Q H. Q E Q. H.
 
 |-5-------5---|-7-----------|-8---7-8------|-5-----------|
 |-------------|-------------|--------------|-------------|
 |-------------|-------------|--------------|-------------|
 |-------------|-------------|--------------|-------------|
 |-------------|-------------|--------------|-------------|
 |-------------|-------------|--------------|-------------|

|
| Gtr III
| ~~ ~~ ~~~~~~~~~~~~~
| H Q H. Q E Q. H.
 
 |-------------|-------------|--------------|-------------|
 |-0-------0---|-2-----------|-3---2-3------|-0-----------|
 |-------------|-------------|--------------|-------------|
 |-------------|-------------|--------------|-------------|

[D]Q E E E E [G]Q E E E E [C]Q E E E E [D] Q E E E E
| | | | | | | | | | | | | | | | | | | |
[/] [/] [/] [/] [/] [/] [/] [/] [/] [/] [/] [/] [/] [/] [/] [/] [/] [/] [/] [/] 
H. H. H. H.
 
 |-------------|---------------|-------------|-----------------|
 |-------------|---------------|-------------|-----------------|
 |-7-----------|---------------|-5-----------|--7--------------|
 |-7-----------|-5-------------|-5-----------|--7--------------|
 |-5-----------|-5-------------|-3-----------|--5--------------|
 |-------------|-3-------------|-------------|-----------------|

|
| H Q H. H Q H.
 
 |-5-------5---|-7-------------|-8-------8---|-10--------------|
 |-------------|---------------|-------------|-----------------|
 |-------------|---------------|-------------|-----------------|
 |-------------|---------------|-------------|-----------------|
 |-------------|---------------|-------------|-----------------|
 |-------------|---------------|-------------|-----------------|

|
|~~~~ ~~ ~~ ~~~
| H Q H S S E H Q H.
 
 |-------------|---------------|-------------|-----------------|
 |-0-------0---|-2-------0-2-0-|-3-------3---|--5--------------|
 |-------------|---------------|-------------|-----------------|
 |-------------|---------------|-------------|-----------------|

[G] Q E E E E [D]Q E E E E [G]Q E E E E [C]Q E E E E
| | | | | | | | | | | | | | | | | | | |
[/] [/] [/] [/] [/] [/] [/] [/] [/] [/] [/] [/] [/] [/] [/] [/] [/] [/] [/] [/] 
H. H. H. H.
 
 |---------------|-------------|-------------|-------------|
 |---------------|-------------|-------------|-------------|
 |---------------|-7-----------|-------------|-5-----------|
 |--5------------|-7-----------|-5-----------|-5-----------|
 |--5------------|-5-----------|-5-----------|-3-----------|
 |--3------------|-------------|-3-----------|-------------|

|
| Q E Q. H Q Q Q Q H E E
 
 |---------------|---------7---|-7---5---7---|-8-------7-8-|
 |--8---7-8------|-------------|-------------|-------------|
 |---------------|-7-----------|-------------|-------------|
 |---------------|-------------|-------------|-------------|
 |---------------|-------------|-------------|-------------|
 |---------------|-------------|-------------|-------------|

|
| ~~~ ~~~~~~~~~~~~~~~~~~~~~~~~~~~~~~~~~~~~~~~~
| Q E Q. H Q Q Q Q H E E
 
 |---------------|-------------|-------------|-------------|
 |---------------|---------2---|-2---0---2---|-3-------5-3-|
 |-/5---4-5------|-0-----------|-------------|-------------|
 |---------------|-------------|-------------|-------------|

[G]Q E E E E [D]Q E E E E [G]Q E E E E [G] Q E E E E
| | | | | | | | | | | | | | | | | | | |
[/] [/] [/] [/] [/] [/] [/] [/] [/] [/] [/] [/] [/] [/] [/] [/] [/] [/] [/] [/] 
H. H. H. H.
 
 |-------------|-------------|-------------|-----------------|
 |-------------|-------------|-------------|-----------------|
 |-------------|-7-----------|-------------|-----------------|
 |-5-----------|-7-----------|-5-----------|--5--------------|
 |-5-----------|-5-----------|-5-----------|--5--------------|
 |-3-----------|-------------|-3-----------|--3--------------|

|
| Q Q Q Q E E Q H. +H.
 
 |-7---5-------|-5---7-5-----|-------------|-----------------|
 |---------8---|---------7---|-8-----------|-(8)-------------|
 |-------------|-------------|-------------|-----------------|
 |-------------|-------------|-------------|-----------------|
 |-------------|-------------|-------------|-----------------|
 |-------------|-------------|-------------|-----------------|

|
| ~~~~~~~~~~~~~~~~~ ~~~~~~~~~~~~~~~~~~~~~~~~
| Q Q Q Q E E Q H. +H.
 
 |-------------|-------------|-------------|-----------------|
 |-2---0-------|-0---2-0-----|-------------|-----------------|
 |---------5---|---------4---|-5-----------|-(5)-------------|
 |-------------|-------------|-------------|-----------------|

[G] Q E E E E [D]Q E E E E [G]Q E E E E [C]Q E E E E
| | | | | | | | | | | | | | | | | | | |
[/] [/] [/] [/] [/] [/] [/] [/] [/] [/] [/] [/] [/] [/] [/] [/] [/] [/] [/] [/] 
H. H. H. H.
 
 |---------------|-------------|-------------|-------------|
 |---------------|-------------|-------------|-------------|
 |---------------|-7-----------|-------------|-5-----------|
 |--5------------|-7-----------|-5-----------|-5-----------|
 |--5------------|-5-----------|-5-----------|-3-----------|
 |--3------------|-------------|-3-----------|-------------|

|
| Q E Q. H Q Q Q Q H E E
 
 |---------------|---------7---|-7---5---7---|-8-------7-8-|
 |--8---7-8------|-------------|-------------|-------------|
 |---------------|-7-----------|-------------|-------------|
 |---------------|-------------|-------------|-------------|
 |---------------|-------------|-------------|-------------|
 |---------------|-------------|-------------|-------------|

|
| ~~~ ~~~~~~~~~~~~~~~~~~~~~~~~~~~~~~~~~~~~~~~~
| Q E Q. H Q Q Q Q H E E
 
 |---------------|-------------|-------------|-------------|
 |---------------|---------2---|-2---0---2---|-3-------5-3-|
 |-/5---4-5------|-0-----------|-------------|-------------|
 |---------------|-------------|-------------|-------------|

[G]Q E E E E [D]Q E E E E [G]Q E E E E [G] H.
| | | | | | | | | | | | | | | |
[/] [/] [/] [/] [/] [/] [/] [/] [/] [/] [/] [/] [/] [/] [/] [/] 
H. H. H. H.
 
 |-------------|-------------|-------------|--------|
 |-------------|-------------|-------------|--------|
 |-------------|-7-----------|-------------|--------|
 |-5-----------|-7-----------|-5-----------|--5-----|
 |-5-----------|-5-----------|-5-----------|--5-----|
 |-3-----------|-------------|-3-----------|--3-----|

|
| Q Q Q Q E E Q H. +H.
 
 |-7---5-------|-5---7-5-----|-------------|--------|
 |---------8---|---------7---|-8-----------|-(8)----|
 |-------------|-------------|-------------|--------|
 |-------------|-------------|-------------|--------|
 |-------------|-------------|-------------|--------|
 |-------------|-------------|-------------|--------|

|
| ~~~~~~~~~~~~~~~~~ ~~~~~~~~~~~~~~~~~~~~~~~~
| Q Q Q Q E E Q H. +H.
 
 |-------------|-------------|-------------|--------|
 |-2---0-------|-0---2-0-----|-------------|--------|
 |---------5---|---------4---|-5-----------|-(5)----|
 |-------------|-------------|-------------|--------|

Verse
[G]Q E E E E [D]Q E E E E [G]Q E E E E [C]Q E E E E
| | | | | | | | | | | | | | | | | | | |
[/] [/] [/] [/] [/] [/] [/] [/] [/] [/] [/] [/] [/] [/] [/] [/] [/] [/] [/] [/] 
Gtr II
Q E Q. H. Q Q Q H E E
 
 |-------------|-------------|-7--5---7---|-8------7-8-|
 |-8--7-8------|-------------|------------|------------|
 |-------------|-7-----------|------------|------------|
 |-------------|-------------|------------|------------|
 |-------------|-------------|------------|------------|
 |-------------|-------------|------------|------------|

[G]Q E E E E [D]Q E E E E [G]Q E E E E [D] Q E E E E
| | | | | | | | | | | | | | | | | | | |
[/] [/] [/] [/] [/] [/] [/] [/] [/] [/] [/] [/] [/] [/] [/] [/] [/] [/] [/] [/] 
Q Q Q H. Q Q Q H.
 
 |-7--5-------|-------------|------------|-----------------|
 |--------8---|-8-----------|-8--7---8---|-10--------------|
 |------------|-------------|------------|-----------------|
 |------------|-------------|------------|-----------------|
 |------------|-------------|------------|-----------------|
 |------------|-------------|------------|-----------------|

[G]Q E E E E [D]Q E E E E [G]Q E E E E [C]Q E E E E
| | | | | | | | | | | | | | | | | | | |
[/] [/] [/] [/] [/] [/] [/] [/] [/] [/] [/] [/] [/] [/] [/] [/] [/] [/] [/] [/] 
Q E Q. H. Q Q Q H E E
 
 |-------------|-------------|-7--5---7---|-8------7-8-|
 |-8--7-8------|-------------|------------|------------|
 |-------------|-7-----------|------------|------------|
 |-------------|-------------|------------|------------|
 |-------------|-------------|------------|------------|
 |-------------|-------------|------------|------------|

[G]Q E E E E [D]Q E E E E [G]Q E E E E [G] Q E E E E
| | | | | | | | | | | | | | | | | | | |
[/] [/] [/] [/] [/] [/] [/] [/] [/] [/] [/] [/] [/] [/] [/] [/] [/] [/] [/] [/] 
Q Q Q Q Q Q H. +H.
 
 |-7--5-------|-5--7---5---|-------------|-----------------|
 |--------8---|------------|-8-----------|-(8)-------------|
 |------------|------------|-------------|-----------------|
 |------------|------------|-------------|-----------------|
 |------------|------------|-------------|-----------------|
 |------------|------------|-------------|-----------------|

Chorus Part
[D]Q E E E E [G]Q E E E E [C]Q E E E E [D]Q E E E E
| | | | | | | | | | | | | | | | | | | |
[/] [/] [/] [/] [/] [/] [/] [/] [/] [/] [/] [/] [/] [/] [/] [/] [/] [/] [/] [/] 
Gtr IV
H. H. H. H.
 
 |-------------|-------------|--------------|-------------|
 |-------------|-------------|--------------|-------------|
 |-7-----------|-------------|-5------------|-7-----------|
 |-7-----------|-5-----------|-5------------|-7-----------|
 |-5-----------|-5-----------|-3------------|-5-----------|
 |-------------|-3-----------|--------------|-------------|

|
| Gtr II
| H Q H. Q E Q. H.
 
 |-5-------5---|-7-----------|-8---7-8------|-5-----------|
 |-------------|-------------|--------------|-------------|
 |-------------|-------------|--------------|-------------|
 |-------------|-------------|--------------|-------------|
 |-------------|-------------|--------------|-------------|
 |-------------|-------------|--------------|-------------|

|
| Gtr III
| ~~ ~~ ~~~~~~~~~~~~~
| H Q H. Q E Q. H.
 
 |-------------|-------------|--------------|-------------|
 |-0-------0---|-2-----------|-3---2-3------|-0-----------|
 |-------------|-------------|--------------|-------------|
 |-------------|-------------|--------------|-------------|

[D]Q E E E E [G]Q E E E E [C]Q E E E E [D] Q E E E E
| | | | | | | | | | | | | | | | | | | |
[/] [/] [/] [/] [/] [/] [/] [/] [/] [/] [/] [/] [/] [/] [/] [/] [/] [/] [/] [/] 
H. H. H. H.
 
 |-------------|---------------|-------------|-----------------|
 |-------------|---------------|-------------|-----------------|
 |-7-----------|---------------|-5-----------|--7--------------|
 |-7-----------|-5-------------|-5-----------|--7--------------|
 |-5-----------|-5-------------|-3-----------|--5--------------|
 |-------------|-3-------------|-------------|-----------------|

|
| H Q H. H Q H.
 
 |-5-------5---|-7-------------|-8-------8---|-10--------------|
 |-------------|---------------|-------------|-----------------|
 |-------------|---------------|-------------|-----------------|
 |-------------|---------------|-------------|-----------------|
 |-------------|---------------|-------------|-----------------|
 |-------------|---------------|-------------|-----------------|

|
|~~~~ ~~ ~~ ~~~
| H Q H S S E H Q H.
 
 |-------------|---------------|-------------|-----------------|
 |-0-------0---|-2-------0-2-0-|-3-------3---|--5--------------|
 |-------------|---------------|-------------|-----------------|
 |-------------|---------------|-------------|-----------------|

[G] Q E E E E [D]Q E E E E [G]Q E E E E [C]Q E E E E
| | | | | | | | | | | | | | | | | | | |
[/] [/] [/] [/] [/] [/] [/] [/] [/] [/] [/] [/] [/] [/] [/] [/] [/] [/] [/] [/] 
H. H. H. H.
 
 |---------------|-------------|-------------|-------------|
 |---------------|-------------|-------------|-------------|
 |---------------|-7-----------|-------------|-5-----------|
 |--5------------|-7-----------|-5-----------|-5-----------|
 |--5------------|-5-----------|-5-----------|-3-----------|
 |--3------------|-------------|-3-----------|-------------|

|
| Q E Q. H Q Q Q Q H E E
 
 |---------------|---------7---|-7---5---7---|-8-------7-8-|
 |--8---7-8------|-------------|-------------|-------------|
 |---------------|-7-----------|-------------|-------------|
 |---------------|-------------|-------------|-------------|
 |---------------|-------------|-------------|-------------|
 |---------------|-------------|-------------|-------------|

|
| ~~~ ~~~~~~~~~~~~~~~~~~~~~~~~~~~~~~~~~~~~~~~~
| Q E Q. H Q Q Q Q H E E
 
 |---------------|-------------|-------------|-------------|
 |---------------|---------2---|-2---0---2---|-3-------5-3-|
 |-/5---4-5------|-0-----------|-------------|-------------|
 |---------------|-------------|-------------|-------------|

[G]Q E E E E [D]Q E E E E [G]Q E E E E [G] Q E E E E
| | | | | | | | | | | | | | | | | | | |
[/] [/] [/] [/] [/] [/] [/] [/] [/] [/] [/] [/] [/] [/] [/] [/] [/] [/] [/] [/] 
H. H. H. Q. +E E E
 
 |-------------|-------------|-------------|-------------------|
 |-------------|-------------|-------------|-------------------|
 |-------------|-7-----------|-------------|-------------------|
 |-5-----------|-7-----------|-5-----------|--5-----(5)-x-x----|
 |-5-----------|-5-----------|-5-----------|--5-----(5)-x-x----|
 |-3-----------|-------------|-3-----------|--3-----(3)-x-x----|

|
| Q Q Q Q E E Q H. +H.
 
 |-7---5-------|-5---7-5-----|-------------|-------------------|
 |---------8---|---------7---|-8-----------|-(8)---------------|
 |-------------|-------------|-------------|-------------------|
 |-------------|-------------|-------------|-------------------|
 |-------------|-------------|-------------|-------------------|
 |-------------|-------------|-------------|-------------------|

|
| ~~~~~~~~~~~~~~~~~ ~~~~~~~~~~~~~~~~~~~~~~~~
| Q Q Q Q E E Q H. +H q
 
 |-------------|-------------|-------------|------------0------|
 |-2---0-------|-0---2-0-----|-------------|-------------------|
 |---------5---|---------4---|-5-----------|-(5)---------------|
 |-------------|-------------|-------------|-------------------|

Fiddle Solo
[D] H. [D]H. [D]H. [D]H.
| | | |
[/] [/] [/] [/] 
H. H. H. H.
 
 |--------------|--------------|--------------|--------------|
 |--------------|--------------|--------------|--------------|
 |---7----------|---7----------|---7----------|---7----------|
 |---7----------|---7----------|---7----------|---7----------|
 |---5----------|---5----------|---5----------|---5----------|
 |--------------|--------------|--------------|--------------|

|
| H. H. H Q Q Q Q
 
 |--------------|--------------|--------------|--------------|
 |--------------|--------------|--------------|--------------|
 |--------------|--------------|----------7---|---7---9--11--|
 |--------------|--------------|--------------|--------------|
 |--------------|--------------|--------------|--------------|
 |--------------|--------------|--------------|--------------|

|
| Gtr III
| ~~~~~~~~~~ ~~~~~~~~~~ ~~~~~~~~~~
| a H +Q a H +Q a H +Q a Q Q Q
 
 |-0-2-----(2)--|-0-2-----(2)--|-0-2-----(2)--|-0-2---0------|
 |--------------|--------------|--------------|-----------5--|
 |--------------|--------------|--------------|--------------|
 |--------------|--------------|--------------|--------------|

[G] Q E E E E [D] Q E E E E [G] Q E E E E [C] Q E E E E
| | | | | | | | | | | | | | | | | | | |
[/] [/] [/] [/] [/] [/] [/] [/] [/] [/] [/] [/] [/] [/] [/] [/] [/] [/] [/] [/] 
Gtr II
H. H. H. H.
 
 |--------------|---------------|----------------|----------------|
 |--------------|---------------|----------------|----------------|
 |-12-----------|---------------|-12-------------|----------------|
 |-12-----------|-12------------|-12-------------|-10-------------|
 |--------------|-12------------|----------------|-10-------------|
 |--------------|---------------|----------------|----------------|

|
| Gtr III
| ~~ ~~~
| Q E E E E Q Q. E Q S S E Q H S S E
 
 |--3---5-3-2-5-|--3------------|----------------|----------------|
 |--------------|------5------3-|--2---0-2-0-2---|----------3-5-3-|
 |--------------|---------------|----------------|----------------|
 |--------------|---------------|----------------|--5-------------|

[G] Q E E E E [D] Q E E E E [G] Q E E E E [D] Q E E E E
| | | | | | | | | | | | | | | | | | | |
[/] [/] [/] [/] [/] [/] [/] [/] [/] [/] [/] [/] [/] [/] [/] [/] [/] [/] [/] [/] 
H. H. H. H.
 
 |------------------|----------------|-----------------|------------------|
 |------------------|----------------|-----------------|------------------|
 |---12-------------|----------------|---12------------|------------------|
 |---12-------------|-12-------------|---12------------|---12-------------|
 |------------------|-12-------------|-----------------|---12-------------|
 |------------------|----------------|-----------------|------------------|

|
| ~~ ~~~
| a Q a E E Q Q a Q Q a Q E q. a H.
 
 |------------------|----------------|-2--3---2-0------|-0--2-------------|
 |-0--2---0-2-0-----|------0-2---5---|-0--2---2--------|------------------|
 |--------------5---|--5-------------|----------7------|-5--7-------------|
 |------------------|----------------|-----------------|------------------|

[G] Q E E E E [D] Q E E E E [G] Q E E E E [C] Q E E E E
| | | | | | | | | | | | | | | | | | | |
[/] [/] [/] [/] [/] [/] [/] [/] [/] [/] [/] [/] [/] [/] [/] [/] [/] [/] [/] [/] 
H. H. H. H.
 
 |--------------|---------------|--------------|------------------|
 |--------------|---------------|--------------|------------------|
 |-12-----------|---------------|-12-----------|------------------|
 |-12-----------|-12------------|-12-----------|---10-------------|
 |--------------|-12------------|--------------|---10-------------|
 |--------------|---------------|--------------|------------------|

|
| ~~ ~~~ ~~~
| Q E Q E Q Q. E Q. E Q a H S S E
 
 |--3---2-3---5-|--3------------|--------------|------------------|
 |--------------|------5------3-|--2-----0-2---|-2--3-------3-5-3-|
 |--------------|---------------|--------------|------------------|
 |--------------|---------------|--------------|------------------|

[G] Q E E E E [D] Q E E E E [G] Q E E E E [G] Q E E E E
| | | | | | | | | | | | | | | | | | | |
[/] [/] [/] [/] [/] [/] [/] [/] [/] [/] [/] [/] [/] [/] [/] [/] [/] [/] [/] [/] 
H. H. H. +H.
 
 |------------------|--------------|-------------------|------------------|
 |------------------|--------------|-------------------|------------------|
 |---12-------------|--------------|-12----------------|-(12)-------------|
 |---12-------------|-12-----------|-12----------------|-(12)-------------|
 |------------------|-12-----------|-------------------|------------------|
 |------------------|--------------|-------------------|------------------|

|
| ~~~~~~~~~~~~~~~~~~~~~
| a Q a E E Q Q Q Q S H +E. H q
 
 |------------------|--------------|-------------------|---3-------0------|
 |-0--2---0-2-0-----|--0---2---0---|-------------------|------------------|
 |--------------5---|--------------|--4--5-------(5)---|------------------|
 |------------------|--------------|-------------------|------------------|

Different Part
[D] Q. Q E q Q Q [C] Q E E E E
| | | | | | | | | | |
/ / / / x x / / / / /
Gtr IV
H. q H H.
 
 |--------------|-------------|---------------|
 |--------------|-------------|---------------|
 |----7---------|---7---------|--5------------|
 |----7---------|---7---------|--5------------|
 |----5---------|---5---------|--3------------|
 |--------------|-------------|---------------|

|
| Gtr II
| H. +q H H.
 
 |--------------|-------------|---------------|
 |---10---------|-(10)--------|--8------------|
 |---11---------|-(11)--------|--9------------|
 |---12---------|-(12)--------|-10------------|
 |--------------|-------------|---------------|
 |--------------|-------------|---------------|

|
| Gtr III
| ~~~
| a H. q H Q E Q.
 
 |-0--2---------|---2---------|--0------------|
 |--------------|-------------|------5-3------|
 |--------------|-------------|---------------|
 |--------------|-------------|---------------|

[G] Q E E E E [D] Q E E E E [D] Q E E E E
| | | | | | | | | | | | | | |
[/] [/] [/] [/] [/] [/] [/] [/] [/] [/] [/] [/] [/] [/] [/] 
H. H. H.
 
 |--------------|--------------|-----------------|
 |--------------|--------------|-----------------|
 |--------------|--7-----------|---7-------------|
 |--5-----------|--7-----------|---7-------------|
 |--5-----------|--5-----------|---5-------------|
 |--3-----------|--------------|-----------------|

|
| H. H. +H.
 
 |--------------|--------------|-----------------|
 |-12-----------|-10-----------|-(10)------------|
 |-12-----------|-11-----------|-(11)------------|
 |-12-----------|-12-----------|-(12)------------|
 |--------------|--------------|-----------------|
 |--------------|--------------|-----------------|

|
| ~~~~~~~~~~~~~~~~~~~
| Q Q Q H. H.
 
 |--------------|--------------|-----------------|
 |--2---0-------|--0-----------|---0-------------|
 |----------5---|--------------|-----------------|
 |--------------|--------------|-----------------|

[D] H. [D] q H [C] Q E E E E [G] Q E E E E
| | | | | | | | | | | |
[/] [/] [/] [/] [/] [/] [/] [/] [/] [/] [/] [/] 
H. q H H. H.
 
 |----------|------------|---------------|--------------|
 |----------|------------|---------------|--------------|
 |--7-------|---7--------|--5------------|--------------|
 |--7-------|---7--------|--5------------|--5-----------|
 |--5-------|---5--------|--3------------|--5-----------|
 |----------|------------|---------------|--3-----------|

|
| H. +q H H. H.
 
 |----------|------------|---------------|--------------|
 |-10-------|-(10)-------|--8------------|-12-----------|
 |-11-------|-(11)-------|--9------------|-12-----------|
 |-12-------|-(12)-------|-10------------|-12-----------|
 |----------|------------|---------------|--------------|
 |----------|------------|---------------|--------------|

|
| ~~~
| H. q H Q E Q. Q Q Q
 
 |--2-------|---2--------|--0------------|--------------|
 |----------|------------|------5-3------|--2---0---2---|
 |----------|------------|---------------|--------------|
 |----------|------------|---------------|--------------|

[D] Q E E E E [D] Q E E E E [D7] Q E E E E [D7] Q E E E E
| | | | | | | | | | | | | | | | | | | |
[/] [/] [/] [/] [/] [/] [/] [/] [/] [/] [/] [/] [/] [/] [/] [/] [/] [/] [/] [/] 
H. +H. +H. H.
 
 |--------------|-----------------|--------------|------------------|
 |--------------|-----------------|--------------|------------------|
 |--7-----------|----(7)----------|-(7)----------|------------------|
 |--7-----------|----(7)----------|-(7)----------|------------------|
 |--5-----------|----(5)----------|-(5)----------|------------------|
 |--------------|-----------------|--------------|------------------|

|
| H. +H. H. +H.
 
 |--------------|-----------------|--------------|------------------|
 |-10-----------|---(10)----------|-10-----------|-(10)-------------|
 |-11-----------|---(11)----------|-11-----------|-(11)-------------|
 |-12-----------|---(12)----------|-10-----------|-(10)-------------|
 |--------------|-----------------|--------------|------------------|
 |--------------|-----------------|--------------|------------------|

|
| ~~~ ~~~~~~~~~~~~~~~~~~~
| H. a Q. E E E H. +H.
 
 |--------------|-0---2-----3-2-0-|--------------|------------------|
 |--5-----------|-----------------|--5-----------|--(5)-------------|
 |--------------|-----------------|--------------|------------------|
 |--------------|-----------------|--------------|------------------|

Breakdown/Buildup?
G/DXII G/DXII D D
Gtr I
Q E E E E Q E E E E Q E E E E Q E E E E
 
 |-----------------|-----------------|-----------------|-----------------|
 |-12--12-12-12-12-|-12--12-12-12-12-|-10--10-10-10-10-|-10--10-10-10-10-|
 |-12--12-12-12-12-|-12--12-12-12-12-|-11--11-11-11-11-|-11--11-11-11-11-|
 |-12--12-12-12-12-|-12--12-12-12-12-|-12--12-12-12-12-|-12--12-12-12-12-|
 |-----------------|-----------------|-----------------|-----------------|
 |-----------------|-----------------|-----------------|-----------------|

G/DXII G/DXII G/DXII G/DXII
Q E E E E Q E E E E Q E E E E Q E E E E
 
 |-----------------|-----------------|-----------------|--------------------|
 |-12--12-12-12-12-|-12--12-12-12-12-|-12--12-12-12-12-|-12--12-12-12-12----|
 |-12--12-12-12-12-|-12--12-12-12-12-|-12--12-12-12-12-|-12--12-12-12-12----|
 |-12--12-12-12-12-|-12--12-12-12-12-|-12--12-12-12-12-|-12--12-12-12-12----|
 |-----------------|-----------------|-----------------|--------------------|
 |-----------------|-----------------|-----------------|--------------------|

G/DXII G/DXII D D
Q E E E E Q E E E E Q E E E E Q E E E E
 
 |------------------|------------------|------------------|------------------|
 |-12---12-12-12-12-|-12---12-12-12-12-|-10---10-10-10-10-|-10---10-10-10-10-|
 |-12---12-12-12-12-|-12---12-12-12-12-|-11---11-11-11-11-|-11---11-11-11-11-|
 |-12---12-12-12-12-|-12---12-12-12-12-|-12---12-12-12-12-|-12---12-12-12-12-|
 |------------------|------------------|------------------|------------------|
 |------------------|------------------|------------------|------------------|

|
| Gtr III
| H. H. H. H.
 
 |------------------|------------------|------------------|------------------|
 |------------------|------------------|------------------|------------------|
 |------------------|------------------|------------------|------------------|
 |------------------|------------------|------------------|------------------|

G/DXII G/DXII G/DXII G/DXII
Q E E E E Q E E E E Q E E E E Q E E E E
 
 |------------------|------------------|------------------|---------------------|
 |-12---12-12-12-12-|-12---12-12-12-12-|-12---12-12-12-12-|-12---12-12-12-12----|
 |-12---12-12-12-12-|-12---12-12-12-12-|-12---12-12-12-12-|-12---12-12-12-12----|
 |-12---12-12-12-12-|-12---12-12-12-12-|-12---12-12-12-12-|-12---12-12-12-12----|
 |------------------|------------------|------------------|---------------------|
 |------------------|------------------|------------------|---------------------|

|
| ~~~~~~~~~~~~~~~~~~~~~~
| H. H. H. +Q. E Q
 
 |------------------|------------------|------------------|---------------------|
 |------------------|------------------|------------------|---------------------|
 |------------------|------------------|--0---------------|-(0)------5--4-------|
 |------------------|------------------|------------------|---------------------|

G/DXII G/DXII D D
Q E E E E Q E E E E Q E E E E Q E E E E
 
 |-------------------|------------------|------------------|--------------------|
 |-12---12-12-12-12--|-12---12-12-12-12-|-10---10-10-10-10-|-10---10-10-10---10-|
 |-12---12-12-12-12--|-12---12-12-12-12-|-11---11-11-11-11-|-11---11-11-11---11-|
 |-12---12-12-12-12--|-12---12-12-12-12-|-12---12-12-12-12-|-12---12-12-12---12-|
 |-------------------|------------------|------------------|--------------------|
 |-------------------|------------------|------------------|--------------------|

|
| ~~~~~~~~~~~~~~~~~~~~~~~~~~~~~~~~~~~~~~~~~~~~~~~~~~~~~~~~~~~
| E H +E +H. +H. +H S S E
 
 |-------------------|------------------|------------------|--------------------|
 |-------------------|------------------|------------------|--------------------|
 |--4-5----------(5)-|-(5)--------------|-(5)--------------|-(5)---------4-5--4-|
 |-------------------|------------------|------------------|--------------------|

G/DXII G/DXII C C
Q E E E E Q E E E E Q E E E E Q E E E E
 
 |-------------------|-----------------|--------------------|--------------------|
 |-12---12-12-12-12--|-12--12-12-12-12-|----8----8--8--8--8-|--8----8--8--8--8---|
 |-12---12-12-12-12--|-12--12-12-12-12-|----9----9--9--9--9-|--9----9--9--9--9---|
 |-12---12-12-12-12--|-12--12-12-12-12-|---10---10-10-10-10-|-10---10-10-10-10---|
 |-------------------|-----------------|--------------------|--------------------|
 |-------------------|-----------------|--------------------|--------------------|

|
| ~~~~~~~~~~~~~~~~~~~~ ~~~~~~~~~~~~~~~~~~~~~~
| E H +E H Q a H. +Q. E Q
 
 |-------------------|-----------------|--------------------|--------------------|
 |-------------------|-----------------|--------------------|--------------------|
 |--4-5----------(5)-|-----------------|--------------------|--------------------|
 |-------------------|--7---------4----|-4--5---------------|-(5)------7--5------|

G/DXII G/DXII D D
H. H. H. H.
Q E E E E Q E E E E Q E E E E Q E E E E
 
 |------------------|------------------|--------------------|------------------|
 |-12---12-12-12-12-|-12---12-12-12-12-|---10---10-10-10-10-|-10---10-10-10-10-|
 |-12---12-12-12-12-|-12---12-12-12-12-|---11---11-11-11-11-|-11---11-11-11-11-|
 |-12---12-12-12-12-|-12---12-12-12-12-|---12---12-12-12-12-|-12---12-12-12-12-|
 |------------------|------------------|--------------------|------------------|
 |------------------|------------------|--------------------|------------------|

|
| Gtr II
| H. H. H. H.
 
 |------------------|------------------|--------------------|------------------|
 |------------------|------------------|--------------------|------------------|
 |------------------|------------------|--------------------|------------------|
 |------------------|------------------|--------------------|------------------|
 |------------------|------------------|--------------------|------------------|
 |------------------|------------------|--------------------|------------------|

|
| Gtr III
| ~~~~~~~~~~~~~~~~~~~~~~ ~~~~~~~~~~~~~~~~~~~~~~
| H. +Q. E Q a H. +H Q
 
 |------------------|------------------|--------------------|------------------|
 |------------------|------------------|--------------------|------------------|
 |------------------|------------------|--------------------|-------------4----|
 |--4---------------|-(4)------5--4----|-0--2---------------|-(2)--------------|

[G5]Gtr IV[G5] [G5] [G5]
H. H. H. H.
| | | |
[/] [/] [/] [/] 
Q E E E E Q E E E E Q E E E E Q E E E E
 
 |---3---3-3-3-3-|--3---3-3-3-3-|--3---3-3-3-3-|--3---3-3-3-3---|
 |---0---0-0-0-0-|--0---0-0-0-0-|--0---0-0-0-0-|--0---0-0-0-0---|
 |---0---0-0-0-0-|--0---0-0-0-0-|--0---0-0-0-0-|--0---0-0-0-0---|
 |---0---0-0-0-0-|--0---0-0-0-0-|--0---0-0-0-0-|--0---0-0-0-0---|
 |---2---2-2-2-2-|--2---2-2-2-2-|--2---2-2-2-2-|--2---2-2-2-2---|
 |---3---3-3-3-3-|--3---3-3-3-3-|--3---3-3-3-3-|--3---3-3-3-3---|

|
| H. H. H. H Q
 
 |---------------|--------------|--------------|----------------|
 |---8-----------|--8-----------|--8-----------|--8-------7-----|
 |---7-----------|--7-----------|--7-----------|--7-------------|
 |---5-----------|--5-----------|--5-----------|--5-------------|
 |---------------|--------------|--------------|----------------|
 |---------------|--------------|--------------|----------------|

|
| ~~~~~~~~~~~~~~~~~~~~~~~~~~~~~~~~~~~~~~~~~~~~~~~~
| a H. +H. +H. +H.
 
 |---------------|--------------|--------------|----------------|
 |---------------|--------------|--------------|----------------|
 |-4-5-----------|-(5)----------|-(5)----------|-(5)------------|
 |---------------|--------------|--------------|----------------|

Verse
[G]Gtr I[D] [G] [C]
Q E E E E Q E E E E Q E E E E Q E E E E
| | | | | | | | | | | | | | | | | | | |
[/] [/] [/] [/] [/] [/] [/] [/] [/] [/] [/] [/] [/] [/] [/] [/] [/] [/] [/] [/] 
Gtr IV
H. H. H. H.
 
 |---------------|-------------|-------------|-------------|
 |---------------|-------------|-------------|-------------|
 |---------------|-7-----------|-------------|-5-----------|
 |--5------------|-7-----------|-5-----------|-5-----------|
 |--5------------|-5-----------|-5-----------|-3-----------|
 |--3------------|-------------|-3-----------|-------------|

|
| Q E Q. H Q Q Q Q H E E
 
 |---------------|---------7---|-7---5---7---|-8-------7-8-|
 |--8---7-8------|-------------|-------------|-------------|
 |---------------|-7-----------|-------------|-------------|
 |---------------|-------------|-------------|-------------|
 |---------------|-------------|-------------|-------------|
 |---------------|-------------|-------------|-------------|

|
| ~~~ ~~~~~~~~~~~~~~~~~~~~~~~~~~~~~~~~~~~~~~~~
| Q E Q. H Q Q Q Q H E E
 
 |---------------|-------------|-------------|-------------|
 |---------------|---------2---|-2---0---2---|-3-------5-3-|
 |-/5---4-5------|-0-----------|-------------|-------------|
 |---------------|-------------|-------------|-------------|

[G]Q E E E E [D]Q E E E E [G]Q E E E E [D] Q E E E E
| | | | | | | | | | | | | | | | | | | |
[/] [/] [/] [/] [/] [/] [/] [/] [/] [/] [/] [/] [/] [/] [/] [/] [/] [/] [/] [/] 
H. H. H. H.
 
 |-------------|-------------|-------------|-----------------|
 |-------------|-------------|-------------|-----------------|
 |-------------|-7-----------|-------------|--7--------------|
 |-5-----------|-7-----------|-5-----------|--7--------------|
 |-5-----------|-5-----------|-5-----------|--5--------------|
 |-3-----------|-------------|-3-----------|-----------------|

|
| Q Q Q H Q Q Q Q H Q
 
 |-7---5-------|-------------|-------------|-----------------|
 |---------8---|-8-------8---|-8---7---8---|-10--------------|
 |-------------|-------------|-------------|----------7------|
 |-------------|-------------|-------------|-----------------|
 |-------------|-------------|-------------|-----------------|
 |-------------|-------------|-------------|-----------------|

|
| ~~~~~~~~~~~~~~~~~~~~~~~~~~~~~~~~~~~~~~~~~~~~~~~~~~~~~
| Q Q Q H Q Q Q Q H Q
 
 |-------------|-------------|-------------|-----------------|
 |-2---0-------|-------------|-------------|--0--------------|
 |---------5---|-5-------5---|-5---4---5---|----------0------|
 |-------------|-------------|-------------|-----------------|

[G] Q E E E E [D]Q E E E E [G]Q E E E E [C]Q E E E E
| | | | | | | | | | | | | | | | | | | |
[/] [/] [/] [/] [/] [/] [/] [/] [/] [/] [/] [/] [/] [/] [/] [/] [/] [/] [/] [/] 
H. H. H. H.
 
 |---------------|-------------|-------------|-------------|
 |---------------|-------------|-------------|-------------|
 |---------------|-7-----------|-------------|-5-----------|
 |--5------------|-7-----------|-5-----------|-5-----------|
 |--5------------|-5-----------|-5-----------|-3-----------|
 |--3------------|-------------|-3-----------|-------------|

|
| Q E Q. H Q Q Q Q H E E
 
 |---------------|---------7---|-7---5---7---|-8-------7-8-|
 |--8---7-8------|-------------|-------------|-------------|
 |---------------|-7-----------|-------------|-------------|
 |---------------|-------------|-------------|-------------|
 |---------------|-------------|-------------|-------------|
 |---------------|-------------|-------------|-------------|

|
| ~~~ ~~~~~~~~~~~~~~~~~~~~~~~~~~~~~~~~~~~~~~~~
| Q E Q. H Q Q Q Q H E E
 
 |---------------|-------------|-------------|-------------|
 |---------------|---------2---|-2---0---2---|-3-------5-3-|
 |-/5---4-5------|-0-----------|-------------|-------------|
 |---------------|-------------|-------------|-------------|

[G]Q E E E E [D]Q E E E E [G]Q E E E E [G] Q E E E E

Important: The song above is NOT stored on the Chordie server. The original song is hosted at www.guitaretab.com. Chordie works as a search engine and provides on-the-fly formatting. Chordie does not index songs against artists'/composers' will. To remove this song please click here.

Text color:
Chord color:
Chord grids: 
Font size:    
Page size: 

C D D7 G G/D G5
Rate #1 of 8 versions

Login - add to songbook

SHARE PAGE  



You need to log in to post comments