Guitar Tabs, Chords and Lyrics
Server problems seems to be fixed. Chordie has been experiencing problems with songs disappearing. These issues now seems to be fixed, but still verifying the fix. If you find anything strange, please email admin@chordie.com.


Within a Mile of Home  Flogging Molly

 
 ------------------------------------------------------------------------------

WITHIN A MILE OF HOME - Flogging Molly
 
 -------------------------------------------------------------------------------

Tabbed by: Pakistanieagle77
Tuning: Standard
Intro: (Electric, med distortion)
Play using F barre and open C chord shapes
[F] [C] [F] [C] [F] [C] [G5]  
 
 e|-----------------------------------------------------------------------------|
 B|---1---1-------------1--1-------------1--1--------------3--------------------|
 G|---2--0--------------2--0------------2---0--------------0--------------------|
 D|---3--2------2-------3--2------2----3--2-------2------0----------------------|
 A|----------3-3-----3----------3-3---3-------3-3----3---X----------------------|
 E|-------------------------------------------------------------3---------------|

[D] [G] [A] 
[D] [G] [A] 
Dust[D] falls on the emp[G]ty halls of my old[A] school
Where the [D]memories fade like the [G]casualty, a [A]forgotten fool
Now [D]wide-eyed has [G]become the blind of [A]spoken rule
As [D]equal only deep is now the[A] word
The [G]lesson's not the answer you once[A] heard
"Don't turn your [D]back on me, don't [A]ever let me [G]down"
She said, "I [D]picked you up each [A]time before you [G]hit the ground
Your selfish [D]face is now [A]erased when someone [G]mentions you
And the [D]darkness that you left is ove[A]rstepped aside
Will [G]disappear in clouds, the sun[A] arrives
Within a mi[D]le of [G]home [A] within a mile of hom[D]e"[G] [A]
Oh [D]worry, oh my [G]worry has it [A]been that long?
The [D]whistle keeps on [G]blowing but the [A]chill's all gone
His empty [D]frame cannot ex[G]plain, there's nothing [A]left inside
So [D]sing to me a song from[A] yesterday
When [G]laughter filled the tears that we now [A]make
"Don't turn your [D]back on me, don't [A]ever let me [G]down"
She said, "I [D]picked you up each [A]time before you [G]hit the ground
Your selfish [D]face is now e[A]rased when someone [G]mentions you
If [D]only you had seen what I no[A]w see
And [G]turned the corner where you would of[A] been
Within a mi[D]le [G]of h[A]ome within a mile of home[D]"[G] [A]
Interlude: Same as intro (minus the last G5)
Outro: (Sing me a song....)
F Am G repeat until end
Last three chords Fmaj7 Am G
| / slide up
| \ slide down
| h hammer-on
| p pull-off
| ~ vibrato
| + harmonic
| x Mute note

Important: The song above is NOT stored on the Chordie server. The original song is hosted at www.guitaretab.com. Chordie works as a search engine and provides on-the-fly formatting. Chordie does not index songs against artists'/composers' will. To remove this song please click here.

Text color:
Chord color:
Chord grids: 
Font size:    
Page size: 

A C D F G G5
Rate #1 of 7 versions

Login - add to songbook

SHARE PAGE  




You need to log in to post comments