Guitar Tabs, Chords and Lyrics
Server problems seems to be fixed. Chordie has been experiencing problems with songs disappearing. These issues now seems to be fixed, but still verifying the fix. If you find anything strange, please email admin@chordie.com.


Veneno vil  Fobia

Veneno vil
de FOBIA
Tab by: Jesus Maldonado
h - hamer on
p - pull off
/ - slie
*Intro
 
 e|------------5-4-3-2-3-------|-----------5-4-3-2-7------|
 B|---------2------------------|--------2-----------------|
 G|--------2-------------------|-------2------------------|
 D|-------4--------------------|------4-------------------|
 A|------4---------------------|-----4--------------------|
 E|---2------------------------|---2----------------------|
 e|-----------5-4-3-2-3---2h3p2---------------------|
 B|--------2--------------------2h3p2---------------|
 G|-------2---------------------------3h4p3---------|
 D|------4----------------------------------4h5p4---|
 A|-----4-------------------------------------------|
 E|---2---------------------------------------------|

[TODO 2 VECES] 
(verso I)
D[Fm#]icen que no conocio el amor
dicen que tiene maldito el corazon[A], que no tiene salvacion
D[Fm#]icen que es una mujer fatal
un paso en falso y te vuelves de cristal[A]
C[Fm#]omo la fuerza de un huracán
y el apetito que tiene cualquier predad[A]or animal
C[Fm#]on la ponzoña de un alacrán
con la inocencia de un niño y bajo la mano[A] un puñal
mira sus ojos y juega en su juego y vera[Fm#]s...
[Fm#] u[A]h, u[Fm#]h, uh,[A]
[Fm#] u[A]h, u[Fm#]h, uh,[A] uh, uhh
[Fm#] u[A]h, u[Fm#]h, uh[A]
[Bm]eres ven[D]eno vil.
[2 veces] 
[INTRO]]
(verso II)
D[Fm#]icen que es como una maquina
nada se salva de una hembra tan vor[A]az,
D[Fm#]icen que es como una vivora
beso tras beso propaga su mald[A]ad
mira en sus ojos y juega en su juego y [Fm#]veras...
[CORO] 
[Fm#] u[A]h, u[Fm#]h, uhh[A]h,
[Fm#] u[A]h, u[Fm#]h, uh,[A] uh, uhh
[Fm#] u[A]h, u[Fm#]h, uhh[A]h
[Bm]eres ven[D]eno vil.
*SOLO
 
 e|-------------------|---------------2-----|
 B|-------------------|---------------3-----|
 G|-------------------|---------------2-----|
 D|---4---------------|---4-----------0-----|
 A|-----4--2-0-2/4----|-----4--2-0-2--------|
 E|-------------------|---------------------|
 e|-------------------|-----------------------|
 B|-------------------|-----------------------|
 G|-------------------|-------------------4---|
 D|---4---------------|---4------------0-4----|
 A|-----4--2-0-2/4----|-----5--4-5-4--2-------|
 E|-------------------|-----------------------|
 e|-------------------|-------------------------|---------|
 B|-------------------|-------------------------|---------|
 G|-------------------|-------------------------|--INTRO--|
 D|---4---------------|---4---------------------|---------|
 A|-----4--2-0-2/4----|-----5--2--------2-------|---------|
 E|-------------------|----------5-4-2---5-4-2--|---------|

(verso III)
Dicen que no conoció el amor
dicen que tiene maldito el corazón[A], que no tiene salvación
D[Fm#]icen que es una mujer fatal
un paso en falso y te vuelves de crist[A]al
C[Fm#]omo la fuerza de un huracán
y el apetito que tiene cualquier predador anim[A]al
u[Fm#]na catástrofe natural
tiene los ojos de fuego y corazón de[A] metal
mira sus ojos y juega en su juego y ver[Fm#]as...
[CORO] 
[Fm#] u[A]h, u[Fm#]h, uhh[A]h,
[Fm#] u[A]h, u[Fm#]h, uh,[A] uh, uhh
[Fm#] u[A]h, u[Fm#]h, uhh[A]h
[Bm]eres ven[D]eno vil.
 
 e|-------------------|---------------2-----|
 B|-------------------|---------------3-----|
 G|-------------------|---------------2-----|
 D|---4---------------|---4-----------0-----|
 A|-----4--2-0-2/4----|-----4--2-0-2--------|
 E|-------------------|---------------------|
 e|-------------------|-----------------------|
 B|-------------------|-----------------------|
 G|-------------------|-------------------4---|
 D|---4---------------|---4------------0-4----|
 A|-----4--2-0-2/4----|-----5--4-5-4--2-------|
 E|-------------------|-----------------------|

Eres veneno vil y tu mordida es mortal tras ese ambiente animal eres veneno vil.
 
 e|-------------------|---------------2-----|
 B|-------------------|---------------3-----|
 G|-------------------|---------------2-----|
 D|---4---------------|---4-----------0-----|
 A|-----4--2-0-2/4----|-----4--2-0-2--------|
 E|-------------------|---------------------|

Eres veneno vi de mordedura fatal tras su sonrisa animal ERES VENENO VIL!
 
 e|-------------------|--------------------------------|
 B|-------------------|--------------------------------|
 G|-------------------|-------------------4------------|
 D|---4---------------|---4------------0-4-------------|
 A|-----4--2-0-2/4----|-----5--4-5-4--2-------2--------|
 E|-------------------|-------------------------5-4-2--|
 e|-----------------|
 B|-----------------|
 G|-----[INTRO]-----|
 D|-----------------|
 A|-----------------|
 E|-----------------|


Important: The song above is NOT stored on the Chordie server. The original song is hosted at www.guitaretab.com. Chordie works as a search engine and provides on-the-fly formatting. Chordie does not index songs against artists'/composers' will. To remove this song please click here.

Text color:
Chord color:
Chord grids: 
Font size:    
Page size: 

A Bm D
Rate #4 of 4 versions

Jango Player

Login - add to songbook

SHARE PAGE  



You need to log in to post comments