Guitar Tabs, Chords and Lyrics
Server problems seems to be fixed. Chordie has been experiencing problems with songs disappearing. These issues now seems to be fixed, but still verifying the fix. If you find anything strange, please email admin@chordie.com.


Ontken Altyd Alles  Fokofpolisiekar

This is not my tabs, i just transferred it from www.tabs.co.za
 



 

23 Sep 2005
FOKOFPOLIESIEKAR - Ontken Altyd Alles
Album : Lugsteuring
Tabbed by : Rohan Büchner
e-mail : FatOblivion@hotmail.com
My guitar is in konsert tuning, so dit klink reg as ek dit so speel
vir standaard tuning skuif alles net een bar aan na links
Ek het probeer om die song volgorde so ver moontlik te hou,
so ek hoop die tab is maklik om te verstaan
Jy sal self moet uitfiggure hoe om die beat te speel van die deel waar hy sing
maar dit is maklik genoeg om af te lei.
 
 D#||-----------------------|---------------------|----------------------------|
 A#||-----------------------|---------------------|----------------------------|
 F#||-----------------------|---------------------|----------------------------|
 C#||--3----------6--8------|--------11--3--------|----8--8--8--8--10--10--10--|
 G#||--3--x-x-x-x-6--8--x-x-|--x-x-x-11--3--x-x-x-|--x-8--8--8--8--10--10--10--|
 D#||--1--x-x-x-x-4--6--x-x-|--x-x-x-9---1--x-x-x-|--x-6--6--6--6--8---8---8---|
 -----------------------|--------------------|
 -----------------------|--------------------|
 -----------------------|--------------------|
 --10--3--x-x-x-x-6--6--|--6--6--8--8--8--8--|
 --10--3--x-x-x-x-6--6--|--6--6--8--8--8--8--|
 --8---1--x-x-x-x-4--4--|--4--4--6--6--6--6--|
 |-------------------------------|---------------------------|
 |-------------------------------|---------------------------|
 |---10--10--10--10--5--5--5--5--|--6--6--6--6--9--9--9--9---| X 4
 |---x---x---x---x---x--x--x--x--|--x--x--x--x--x--x--x--x---|
 |---8---8---8---8---3--3--3--3--|--4--4--4--4--7--7--7--7---|
 |-------------------------------|---------------------------|
 ------------------------------------| |--------------------------------------|
 ------------------------------------| |--------------------------------------|
 ------------------------------------| |--------------------------------------|
 ---3--3--3----3----3----3----3--3---| X2 |--------------------------------------|
 ---3--3--3----3----3----3----3--3---| dan |-------------------6---------------6--|
 ---1--1--1----1----1----1----1--1---| |--12/4-4-4-4-4-4-8---4-4-4-4-4-4-8----|

[E5]vrede gevind met die teens[C5]trydigheid wat in
die a[G5]re van my dor ver[D5]sprei
E5* C5
en ek het te lank terug gedink, te lank terug gesig gewys
[G5]al my grense wat v[A5]erskuif
[C5]met my voete diep
onder die slyp van stil rivier
[A5]kop in wolke
hande van dier
[E5]dis net natuurlik so
[C5]ek is net natuurlik hoog
E5* G5
jy verdoof die deel wat tyd so skelm steel
ek sal volgende jaar be[(E5)]gin //Nb. strum die C/B, E5 en G5 in
//diè deel net 1 keer. Gemerk met( )
[E5]bedaar ek sal [G5]volgende jaar
[E5]gaan jy[(C/B)] jouself[(G5)] dan nou [E5]kluisenaar hou
C5 E5* D#5
geweerloop teen die tempel nie die mond nie hier onthou
G5 E5*
veelsgeluk met my verdraagdag impulsiewe huiwering
as daar 'n spesiale boodskap was vir my
het ek dit [G5]misgekyk
my liedjie van die jaar het ek perongeluk [C5]oorgetape
//Na die C5 doen jy 'n "hakkerige"
//picscrape om die regte effek te
//kry
Solo rythm
 
 -----------

E5 C5 G5 D5 E5* C5 G5 A5
(Begin van die solo... dink ek)
 
 ------------------------------------------------------|
 ------------------------------------------------------|
 ------------------------------------------------------|
 --6-6-6-6-6/10--8---6---10----6-6-6-6/13--11--10--6---|
 ------------------------------------------------------|
 ------------------------------------------------------|
 -----------------------------------------|
 -----------------------------------------|
 -----------------------------------------|
 -6-6-6-6/13--10--10--10--10-10/11-9------|
 -----------------------------------------|
 -----------------------------------------|
 ----------------------------------------|
 ----------------------------------------|
 ----------------------------------------|
 -8/10--18\17--17\15-15-15---------------|
 ----------------------------------------|
 ----------------------------------------|
 ----------------------------------------|
 ----------------------------------------|
 ----------------------------------------|
 -18\17--17\15-15-15-13-13---------------|
 ----------------------------------------|
 ----------------------------------------|
 ----------------------------------------|
 ----------------------------------------|
 ----------------------------------------|
 --8/10-10-10-10-10-10\8-8-8-------------|
 ----------------------------------------|
 ----------------------------------------|

[C5]met my voete diep
onder die slyp van stil rivier
[A5]kop in wolke
hande van dier
Outro
[-----]G5* G //Herhaal soos nodig
dan elk net 1 keer
 
 -----------------

[C5] [C5] [G5]  
Chords gebruik
 
 -------------- //voel vry om die E5* te vervang met E5, en anders om

//maar dit is hoe ek dit speel
E5 C5 G5 A5 E5* D5 C/B D#5 G5* G
 
 -------------------------------------------------------|
 --------------------10---------------------------------|
 -----6--------------10----8------6-----9-----13---13---|
 -3---6----6---8-----8-----8------6-----9-----13---13---|
 -3---4----6---8-----------6------3-----7-----11---11---|
 -1--------4---6-----------------------------------11---|

Solo's is nie my sterk punt nie, eks meer een vir rythm.
As jy iets kan verbeter, maak gerus so. THX!
Fokofpolisiekar rocks!
 
 ---------------------------

This file passed through:
Absolute Tabs
http://www.tabs.co.za
 
 ---------------------------


Important: The song above is NOT stored on the Chordie server. The original song is hosted at www.guitaretab.com. Chordie works as a search engine and provides on-the-fly formatting. Chordie does not index songs against artists'/composers' will. To remove this song please click here.

Text color:
Chord color:
Chord grids: 
Font size:    
Page size: 

A5 C5 D5 E5 G5
Rate #1 of 2 versions

Login - add to songbook

SHARE PAGE  




You need to log in to post comments