Guitar Tabs, Chords and Lyrics
Server problems seems to be fixed. Chordie has been experiencing problems with songs disappearing. These issues now seems to be fixed, but still verifying the fix. If you find anything strange, please email admin@chordie.com.


Die Illusie Van Veiligheid  Fokofpolisiekar

SONG: DIE ILLUSIE VAN VEILIGHEID
ARTIST: FOKOFPOLISIEKAR
ALBUM: MONOLOOG IN STEREO
TYPE: Guitar Tablature
TABBED BY: Rikus
DEEL 1: Chords oor woorde.
DEEL 2: Lead kitaar Riffs.
DEEL 1:
CHORDS: Cmaj7 Fmaj7 F/E G/E Bm F/G E7
 
 ~~~~~~~ E|-----|-----|--0--|--0--|-----|--3--|--0--|
 B|-----|-----|--1--|--3--|--0--|--1--|--3--|
 G|--4--|--9--|--2--|--4--|--7--|--2--|--1--|
 D|--5--|--10-|--3--|--5--|--9--|--3--|--0--|
 A|--3--|--8--|-----|-----|--0--|-----|--2--|
 E|-----|-----|-----|-----|-----|-----|--0--|

RIFFS
[-----]  
[1] [Cmaj7]  
2 [Fmaj7]Am Bm? G/E Am
F/G -> F/E
E7 -> E
[Am]goedkoop[Em] kitssatis[Am]faksie [G]
[C]volgraan[G] fase [Am]4[Am]
[3] [F/E]mezzanine messia[G/E]s van die woon[Am]buurt
[C]ek is baie [G]bly om jou te sien
[4] [Am] [Am] [F] [G] [(/G#)]  
[Am] [Am] [F] [E]  
[Am]opsoek na[Em] bewyse [Am]dat ek le[G]we
[C]laatnag[G] ples[Am]ier[Am]
die [F]res lag harder [G]as ek, ek [Am]lag nie vir flou [Am]grappe nie
dis [C]klaar te laat, [G]luister julle ni[Am]e? [Am]
[3(1)] ek [F/E]voel asof ek met [G]myself praat
en daar?s [Am]geen pad voren[G]toe nie so
[1] [Cmaj7]wat doen ons nou? ons los ons ruite oop en
[Fmaj7]ons het nie diefwering nie
2 Am Bm?
ek het familie wat nie bloed is nie
dit [G/E]help nie veel vir [Am]hoe ek voel nie
jy?s [F/E]lui, jy?s selfsugtig en jy [F]luister nie
[5] [Am] [Em] [Am] [G]  
[C] [G] [Am] [Am]  
[F] [G] [Am] [Am]  
[C] [G]  
[4] [Am] [Am] [F] [G] [(/G#)]  
[Am] [Am] [F] [E]  
[Am]als wat jy [Em]kry moet [Am]jy[G]
[C]by die [G]venster uit sm[Am]yt[Am]
[3(2)] [F/E]ons sal rond si[G]t en raas
die[Am]selfde wyshede[Am] herhaal
in ?n [C]vuil sitkamer [G]sukkel jy om te lee[Am]f[Am]
[F]sonder [G]rigting is dit [Am]moeilik om jou[G]self te wees
[1] [Cmaj7]wat doen ons nou? ons los ons ruite oop
[Fmaj7]en ons het nie diefwering nie
2 Am Bm?
ek het familie wat nie bloed is nie
dit h[G/E]elp nie veel vir h[Am]oe ek voel nie
jy?s [F/E]lui, jy?s selfsugtig en jy [F]luister nie
[1] [Cmaj7]daar?s niks wat ons keer nie ons los ons ruite oop
[Fmaj7]en ons het nie diefwering nie
2 Am Bm?
ek het familie wat nie bloed is nie
dit h[G/E]elp nie veel vir h[Am]oe ek voel nie
jy?s [F/E]stadig en jy werk nie goed met [F]ander nie
[C]  
DEEL 2:
[+++++++]  
Intro word deur lead kitaar gespeel
~~~~~~~~~~~~~~~~~~~~~~~~
Ritme: 1 . [Cmaj7]2 . 3 . 4 . 1 . 2 . 3 . 4 . 1 . 2 . 3 . 4 . 1 . 2 . 3 . 4 .
| | | |
 
 E|-----------------------------------------------------------------|
 B|-----0---0-0---0---0-0---0-0---------0---0-0---0---0-0---0-0-----|
 G|-----4---4-4---4---4-4---4-4-0-------4---4-4---4---4-4---4-4-0---|
 D|-----5---5-5---5---5-5---5-5-5-------5---5-5---5---5-5---5-5-5---|
 A|-----3---3-3---3---3-3---3-3-3-------3---3-3---3---3-3---3-3-3---|
 E|-----------------------------------------------------------------|

| Fmaj7 | | |
 
 E|-----------------------------------------------------------------|
 B|-----------------------------------------------------------------|
 G|-----9---9-9---9---9-9---9-9---------9---9-9---9---9-9---9-9-----|
 D|-----10--1010--10--1010--101010------10--1010--10--1010--101010--|
 A|-----8---8-8---8---8-8---8-8-8-------8---8-8---8---8-8---8-8-8---|
 E|-----------------------------------------------------------------|

RIFF 2 - INTRO / CHORUS:(Word deur lead kitaar gespeel)
~~~~~~~~~~~~~~~~~~~~~~~~
Ritme: 1 . 2 . 3 . 4 . 1 . 2 . 3 . 4 . 1 . 2 . 3 . 4 . 1 . 2 . 3 . 4 .
v v ^ ^ V ^ V V ^ ^ V ^ V V ^ ^ V ^ V V ^ ^ V ^
 
 E|-----------------------------------------------------------------|
 B|-0---0-0---0-0-0-0---0-0---0-0-0-0---0-0---0-0-0-0---0-0---0-0-0-|
 G|-5---5-5---5-5-5-5/7-7-7---7-7-7-7\4-4-4---4-4-4-4/5-5-5---5-5-5-|
 D|-7---7-7---7-7-7-7/9-9-9---9-9-9-9\5-5-5---5-5-5-5/7-7-7---7-7-7-|
 A|-0---0-0---0-0-0-0---0-0---0-0-0-0---0-0---0-0-0-0---0-0---0-0-0-|
 E|-----------------------------------------------------------------|

RIFF 3 - VERSE:
~~~~~~~~~~~~~~~
Dit is hoe die lead kitaar dit pick
Ritme: [F/E]1 . 2 . 3 . 4 . [G/E]1 . 2 . 3 . 4 . [Am]1 . 2 . 3 . 4 . 1 . 2 . 3 . 4 .
 
 E|---------0-------------0-----------------------------------------|
 B|-----1-----1---------------3---------1---0h1---1-----1---0h1-----|
 G|---2---2-----2-----4-----------4-----2---2-2---2-----2---2-2---0-|
 D|-3-------------3/5-------------------------------------------0---|
 A|---------------------------------0-----0-----0-----0---0---------|
 E|-----------------------------------------------------------------|

[C] [G]  
 
 E|---------------------------------|
 B|-----1---------------------------|
 G|-------0---0---------0-----------|
 D|--2------------0-------0---0---2-|
 A|-3-------3---3-----2---------2---|
 E|-----------------3-------3-------|
 -------------------

(1) - Speel dit by: "En daar's geen....."
Ritme: 1 . 2 . 3 . 4 . 1 . 2 . 3 . 4 .
[Am] [G]  
 
 E|---------------------------------|
 B|-------1---------------0---------|
 G|-----2-----2---0-----0-----0-----|
 D|---2---------2-----0---------0---|
 A|-0-------------------------------|
 E|-----------------3---------------|

(2) - Speel dit by: "Luister julle nie"
Ritme: 1 . 2 . 3 . 4 . 1 . 2 . 3 . 4 . 1 . 2 . 3 . 4 . 1 . 2 . 3 . 4 .
[Am] [Am]  
 
 E|---------------------------------|
 B|-------1-------1-------1p0-------|
 G|-----2-----2-------2-------2---0-|
 D|---2---------2-------2-------2---|
 A|-0-------------------------------|
 E|---------------------------------|

[C] [G] [Am] [Am]  
 
 E|-----------------------------------------------------------------|
 B|---------1---------------0---------1-----1-----1-----1-----1-----|
 G|-----0-----0---------0-----0---------2-----2-----2-----2-----0---|
 D|---2---2-----2-----0---0-----0-----------------------------------|
 A|-3-------------3---------------2-0-----0-----0-----0-----0-------|
 E|-----------------3-----------------------------------------------|

[F] [G] [Am] [G]  
 
 E|---------0---------------5---------------------------------------|
 B|-----1-----1-------3---3---3-------------1---------------0-------|
 G|---0-----------0-----4-------4-------2-----2---------0-----0-----|
 D|-3-----3-----3---5-------------5---2---2-----2-----0---0-----0---|
 A|---------------------------------0-------------0---------------2-|
 E|-------------------------------------------------3---------------|

RIFF 4:
~~~~~~~
Word gepick op 'n acoustiese kitaar.
Ritme: [Am]1 . 2 . 3 . 4 . 1 . 2 . 3 . 4 . [F]1 . 2 . 3 . 4 . [G]1 . 2 . 3 . 4 .
| | | |
 
 E|---------------9-----5-------------------5---------------7-------|
 B|-----8---5-------5-----5---6p5-------0-----0---0-----0-----0-0-0-|
 G|---5---5---5-------5-----5-----5---5---5-----5-----4---4---4-4-4-|
 D|-7-----------7-------------------3---------------5---------------|
 A|-----------------------------------------------------------------|
 E|-----------------------------------------------------------------|

[Am]| | [F]| [E]|
 
 E|---------------9-----5-------------------5---------------4-------|
 B|-----8---5-------5-----5---6p5-------0-----0---0-----0-----------|
 G|---5---5---5-------5-----5-----5---5---5-----5-----4---4---------|
 D|-7-----------7-------------------3---------------2---------------|
 A|-----------------------------------------------------------------|
 E|-----------------------------------------------------------------|

Tweede keer speel die laaste E soos dit: E
|
 
 |-------------4---|
 |---------0-------|
 |-----1-----------|
 |-2---------------|
 |-----------------|
 |-----------------|

RIFF 5 SOLO(Luister song vir die ritme)
OLO:
~~~~~~~~~~~~~~~~~~~~~~~~~~~~~
 
 E|--------------------------------------------3-------0---0---0---0---0---0-|
 B|----------------------------0-0-5---5---3h5---5-5-------------------------|
 G|------2-0-------------------------5---5--------5--5---4---2---0---2---4---|
 D|----------2p0-------0-----------------------------------------------------|
 A|-12\0---------3-0-3---0---------------------------------------------------|
 E|------------------------2h3-----------------------------------------------|
 E|--------------------------------------------------------------------------|
 B|-----5-5---5-5h6-6---6-6-6p5-5---5\-------1p0----------1------------------|
 G|-4/5-----5---------5-----------5--------0------0-----0--------------------|
 D|------------------------------------0h2-------2--0h2-----2p0--------------|
 A|------------------------------------------------------------2p0-3-2-0---0-|
 E|----------------------------------------------------------------------3---|

Hoop julle geniet dit
En net vir interessantheid ek is net 14

Important: The song above is NOT stored on the Chordie server. The original song is hosted at www.guitaretab.com. Chordie works as a search engine and provides on-the-fly formatting. Chordie does not index songs against artists'/composers' will. To remove this song please click here.

Text color:
Chord color:
Chord grids: 
Font size:    
Page size: 

Am C Cmaj7 E Em F Fmaj7 G G/E F/E
Rate #1 of 2 versions

Login - add to songbook

SHARE PAGE  




You need to log in to post comments