Guitar Tabs, Chords and Lyrics
Server problems seems to be fixed. Chordie has been experiencing problems with songs disappearing. These issues now seems to be fixed, but still verifying the fix. If you find anything strange, please email admin@chordie.com.


Chalice of Blood   Forbidden

 
 E ---------------------------------------------------------------|
 B ---------------------------------------------------------------|
 G ---------------------------------------------------------------|
 D ---------------------------------------------------------8--2--|
 A ---------------------------------------------------------8--2--|
 E -x-x-x-x-x-x-x-x-x-x-x-x-x-x-x-x-x-x-x-x-x-x-x-x-x-x-x-x-6--0--|

 


 


 Riff 1


 


 

 
 E ---------------------------------------------------------------------------------------------------------------------|
 B ---------------------------------------------------------------------------------------------------------------------|
 G ---------------------------------------------------------------------------------------------------------8-----------|
 D -2-4-----5-4-------------5-4-----2-4-----5-4-----4-5-8-5-4-5-8-5-2-4-----5-4-------------2-4-----5-4-----8--8--7--5--|
 A -2-4-----5-4-----2-1---------5-4-2-4-----5-4---------------------2-4-----5-4-----2-1-----2-4-----5-4-----6--8--7--5--|
 E -0-2-2-2-3-2-2-2-----3-2---------0-2-2-2-3-2-2-2-----------------0-2-2-2-3-2-2-2-----3-2-0-2-2-2-3-2-2-2----6--5--3--|

 


 


 Riff 1A


 


 

 
 E -------------------------------------------------------------------------------------------------------------------|
 B -------------------------------------------------------------------------------------------------------------------|
 G ---------------------------------------------------------------------------------------------------------7----6----|
 D -2-4-----5-4-------------5-4-----2-4-----5-4-----4-5-8-5-4-5-8-5-2-4-----5-4-------------2-4-----5-4-----7----6----|
 A -2-4-----5-4-----2-1---------5-4-2-4-----5-4---------------------2-4-----5-4-----2-1-----2-4-----5-4-----5----4----|
 E -0-2-2-2-3-2-2-2-----3-2---------0-2-2-2-3-2-2-2-----------------0-2-2-2-3-2-2-2-----3-2-0-2-2-2-3-2-2-2-----------|

 


 


 Riff 2


 


 

 
 E -------------------------|
 B -------------------------|
 G -7-6--7--4--6-----5------|
 D -7-6--7--4--6--7--5--5---|
 A -5-4--5--2--4--7--3--5---|
 E ---------------5-----3---|

 


 


 Riff 2A


 


 

 
 E -----------------------------------------\-|
 B -----------------------------------------\-|
 G -7-6--7--4--6-----5-----------------5----\-|
 D -7-6--7--4--6--7--5--5---4---6---7-------\-|
 A -5-4--5--2--4--7--3--5-------------------\-|
 E ---------------5-----3-------------------\-|

 


 


 Riff 3


 


 

 
 E -------------------------------------------------------------|
 B -------------------------------------------------------------|
 G ----------------------------------------------------------5--|
 D -----------------------5--4-5------------------------5--4-5--|
 A -----------------------5--4-5------------------------5--4-3--|
 E -0-2-2-2-2-2-2-2-2-2-2-3--2-3--0-2-2-2-2-2-2-2-2-2-2-3--2----|

 


 


 Riff 3A


 


 

 
 E --------------------------------------------------------------|
 B --------------------------------------------------------------|
 G -----------------------------------------------12-11----------|
 D -----------------------5--4-5------------------12-11---10-9---|
 A -----------------------5--4-5------------------10-9 ---10-9---|
 E -0-2-2-2-2-2-2-2-2-2-2-3--2-3--0-2-2-2-2-2-2-2---------8 -7---|

 


 


 Riff 4


 


 

 
 E -----------------------------------------------------|
 B -----------------------------------------------------|
 G -----------------------------------------------------|
 D ---------------------------------5----8----7---------|
 A ---------------------------------5----8----7---------|
 E -2-2-2-2-2-2-2-2-2-2-2-2-2-2-2-2-3----6----5----0----|

 


 


 Riff 5


 


 

 
 E ----------------------------------------------------------------------|
 B ----------------------------------------------------------------------|
 G ---------------------------------5--------8--------11--------3--------|
 D ---------------------------------5--------8--------11--------5--------|
 A ---------------------------------3--------6--------9 --------5--------|
 E -2-2-2-2-2-2-2-2-2-2-2-2-2-2-2-2-----------------------------3--------|

 


 


 Riff 5A


 


 

 
 E ---------------------------------15----------15----------15----------15----------15----------15----------19b21--------|
 B ------------------------------------17-14-17----17-14-17----17-14-17----17-14-17----17-14-17----17-14-17--------------|
 G ----------------------------------------------------------------------------------------------------------------------|
 D ----------------------------------------------------------------------------------------------------------------------|
 A ----------------------------------------------------------------------------------------------------------------------|
 E -2-2-2-2-2-2-2-2-2-2-2-2-2-2-2-2--------------------------------------------------------------------------------------|

 


 


 Riff 5B


 


 

 
 E ---------------------------------18----------18----------18----------18----------18----------18----------19b21--------|
 B ------------------------------------20-17-20----20-17-20----20-17-20----20-17-20----20-17-20----20-17-20--------------|
 G ----------------------------------------------------------------------------------------------------------------------|
 D ----------------------------------------------------------------------------------------------------------------------|
 A ----------------------------------------------------------------------------------------------------------------------|
 E -2-2-2-2-2-2-2-2-2-2-2-2-2-2-2-2--------------------------------------------------------------------------------------|

 


 


 Riff 6


 


 

 
 E ------------------------------------------------------|
 B ------------------------------------------------------|
 G ---------------------5--2----------------------3------|
 D -4------5----4--4----5--2--4------5----4--4----3------|
 A -4------5----4--4----3--0--4------5----4--4----1------|
 E -2--2-2-3--2-2--2--2-------2--2-2-3--2-2--2--2----0-0-|

 


 


 Riff 7


 


 [1]  

 
 E ------------------------------------------------------------- ------------------------------------------------------------|
 B ------------------------------------------------------------- ------------------------------------------------------------|
 G -4----------------------5--5-4---------------5--7--5--2--4--- ---------------------5--5-10--10-10--10-10-10-7--7-7--7-7-7-|
 D -4----------------------5--5-4---------------5--7--5--2--4--- ---------------------5--5-10--10-10--10-10-10-7--7-7--7-7-7-|
 A -2--2-2-2-2-2-2-2-2-2-2-3--3-2---2-2-2-2-2-2-3--5--3--0--2---
 --8 -8 --8 -8 -8 -5--5-5--5-5-5-
 E ------------------------------------------------------------- ------------------------------------------------------------

 


 


 [2] [3]  

 
 E ------------------------------------------------------------------- -----------------------------------------------|
 B ------------------------------------------------------------------- -----------------------------------------------|
 G ---------------------5--5-10--10-10--10-10-10-12--12-12--12-12-12-- ---------------------5--5--12--------11--------|
 D ---------------------5--5-10--10-10--10-10-10-12--12-12--12-12-12-- ---------------------5--5--12--------11--------|
 A -2-2-2-2-2-2-2-2-2-2-3--3-8 --8 -8 --8 -8 -8 -10--10-10--10-10-10--
 --------
 E ------------------------------------------------------------------- -----------------------------------------------
 E ---------------------------------------------|
 B ---------------------------------------------|
 G -9----/9----/9----/9----/9----/9----5--4--2--|
 D -9----/9----/9----/9----/9----/9----5--4--2--|
 A -7----/7----/7----/7----/7----/7----3--2--0--|
 E ---------------------------------------------|

 


 


 Riff 8


 


 

 
 E -------------------------------------------------------------------------------------------------|
 B -------------------------------------------------------------------------------------------------|
 G -------------------------------------------------------------------------------------------------|
 D -5-4---------5-4-----------------5-4---------5-4-----------------5-4---------5-4-----------------|
 A -5-4---------5-4-----------------5-4---------5-4-----------------5-4---------5-4-----------------|
 E -3-2-2-2-2-2-3-2-x-x-x-x-x-x-x-x-3-2-2-2-2-2-3-2-2-2-2-2-2-2-2-2-3-2-2-2-2-2-3-2-x-x-x-x-x-x-x-x-|
 E ---------------------------|
 B ---------------------------|
 G ---------------------------|
 D -5-4-----5-8--7--5--7------|
 A -5-4-----4-8--7--5--7------|
 E -3-2-2-2-2-6--5--3--5--0-0-|

 


 


 Riff 9


 


 

 
 E -----------------------------------------------------------------|
 B -----------------------------------------------------------------|
 G -------------------------------------------------4-3-----3-2-----|
 D -2-4-----4-5-----2-4-----0-2-----2-4-----5-4---------5-4-----4-2-|
 A -----------------------------------------------------------------|
 E -----2-2-----2-2-----2-2-----2-2-----2-2-----2-2-----------------|

 


 


 Riff 9A


 


 

 
 E -----------------------------------------------------------|
 B -----------------------------------------------------------|
 G -------------------------------------------------3---------|
 D -2-4-----4-5-----2-4-----0-2-----2-4-----5-4-----3----2----|
 A -------------------------------------------------1----2----|
 E -----2-2-----2-2-----2-2-----2-2-----2-2-----2-2------0----|

 


 


 Riff 10


 


 

 
 E ----------------|
 B ----------------|
 G ----------------|
 D -7--8--5--2--4--|
 A -7--8--5--2--4--|
 E -5--6--3--0--2--|


Important: The song above is NOT stored on the Chordie server. The original song is hosted at www.guitaretab.com. Chordie works as a search engine and provides on-the-fly formatting. Chordie does not index songs against artists'/composers' will. To remove this song please click here.

This song is displayed as text-only. Transposing and tuning is only available for chordpro-songs.
Rate #5 of 5 versions

Login - add to songbook

SHARE PAGE  



You need to log in to post comments