Guitar Tabs, Chords and Lyrics
Server problems seems to be fixed. Chordie has been experiencing problems with songs disappearing. These issues now seems to be fixed, but still verifying the fix. If you find anything strange, please email admin@chordie.com.


Wind  Forseti

 
 ----------------------------------------------------------------------------

Wind - Akeboshi
 
 ----------------------------------------------------------------------------

IF YOU LIKE IT GRADE IT!
Befor i begin I want to say that the guitar pro version is GREAT(!!!)
Tabbed by:Nethaniel Ben-Zaki
Email:Naty1110@gmail.com
Tuning:standard
Chords:
[Cm] [-] [335553]  
[Gm] [-] [344333]  
[G#] [-] [466544]  
[D#M] [-] [365343]  
[Fm] [-] [133111]  
[Bb] [-] [113331]  
Intro:
 
 e|--3-------6---|---------1---|--3----3-6---|------------|
 B|----4-6-8-----|--3-4-1-3----|--1-4-6------|--3-4-1-3---|
 G|--5---7---0-3-|--1--------3-|------7--0-3-|--1-------3-|
 D|--------------|---------1---|-------------|--------1---|
 A|--------------|-------------|-------------|------------|
 E|--------------|-------------|-------------|------------|
 e|--3-------6---|---------1---|--3----3-6---|------------|
 B|--1-4-6-8-----|--3-4-1-3----|--1-4-6------|--3-4-1-3---|
 G|------7---0-3-|--1--------3-|------7--0-3-|--1-------3-|
 D|--------------|---------1---|-------------|--------0---|
 A|--------------|-------------|-------------|------------|
 E|--------------|-------------|-------------|------------|

pre-verse:
[Cm] [Gm] [G#] [D#M] [Cm] [Gm] [G#] [D#M]  
 
 e|-------------|--------------|-------------|--------------|
 B|---4------3~-|--------------|---4------3~-|--------------|
 G|---5------3~-|----5------3~-|---5------3~-|----5------3~-|
 D|---5------5~-|----6------5~-|---5------5~-|----6------5~-|
 A|-3-----------|----6------6~-|-3-----------|----6------6~-|
 E|--------3----|--4-----------|--------3----|--4-----------|

[Cm] [Gm] [G#] [D#M] [Cm] [Gm] [G#] [D#M]  
 
 e|-------------|--------------|-------------|--------------|
 B|---4------3~-|--------------|---4------3~-|--------------|
 G|---5------3~-|----5------3~-|---5------3~-|----5------3~-|
 D|---5------5~-|----6------5~-|---5------5~-|----6------5~-|
 A|-3-----------|----6------6~-|-3-----------|----6----6-6~-|
 E|--------3----|--4-----------|--------3----|--4-----------|

verse 1:
[Cm] [Gm] [G#] [D#M] [Cm] [Gm] [G#] [D#M]  
 
 e|-------------|--------------|-------------|--------------|
 B|---4------3~-|--------------|---4------3~-|--------------|
 G|---5------3~-|----5------3~-|---5------3~-|----5------3~-|
 D|---5------5~-|----6------5~-|---5------5~-|----6------5~-|
 A|-3-----------|----6------6~-|-3-----------|----6------6~-|
 E|--------3----|--4-----------|--------3----|--4-----------|

[Cm] [Gm] [G#] [D#M] [Cm] [Gm] [G#] [D#M]  
 
 e|-------------|--------------|-------------|--------------|
 B|---4------3~-|--------------|---4------3~-|--------------|
 G|---5------3~-|----5------3~-|---5------3~-|----5------3~-|
 D|---5------5~-|----6------5~-|---5------5~-|----6------5~-|
 A|-3-----------|----6------6~-|-3-----------|----6------6~-|
 E|--------3----|--4-----------|--------3----|--4-----------|

Interlude
[Cm] [Gm] [G#] [D#M] [Cm] [Gm] [G#] [D#M]  
 
 e|-------------|--------------|-------------|--------------|
 B|---4------3~-|--------------|---4------3~-|--------------|
 G|---5------3~-|----5------3~-|---5------3~-|----5------3~-|
 D|---5------5~-|----6------5~-|---5------5~-|----6------5~-|
 A|-3-----------|----6------6~-|-3-----------|----6------6~-|
 E|--------3----|--4-----------|--------3----|--4-----------|

verse 2:
[Cm] [Gm] [G#] [D#M] [Cm] [Gm] [G#] [D#M]  
 
 e|-------------|--------------|-------------|--------------|
 B|---4------3~-|--------------|---4------3~-|--------------|
 G|---5------3~-|----5------3~-|---5------3~-|----5------3~-|
 D|---5------5~-|----6------5~-|---5------5~-|----6------5~-|
 A|-3-----------|----6------6~-|-3-----------|----6------6~-|
 E|--------3----|--4-----------|--------3----|--4-----------|

[Cm] [Gm] [G#] [D#M] [Cm] [Gm] [G#] [D#M]  
 
 e|-------------|--------------|-------------|--------------|
 B|---4------3~-|--------------|---4------3~-|--------------|
 G|---5------3~-|----5------3~-|---5------3~-|----5------3~-|
 D|---5------5~-|----6------5~-|---5------5~-|----6------5~-|
 A|-3-----------|----6------6~-|-3-----------|----6------6~-|
 E|--------3----|--4-----------|--------3----|--4-----------|

chorus:
[Cm] [Gm] [G#] [D#M] [Cm] [Gm] [G#] [D#M]  
 
 e|-------------|--------------|-------------|--------------|
 B|---4------3~-|--------------|---4------3~-|--------------|
 G|---5------3~-|----5------3~-|---5------3~-|----5------3~-|
 D|---5------5~-|----6------5~-|---5------5~-|----6------5~-|
 A|-3-----------|----6------6~-|-3-----------|----6------6~-|
 E|--------3----|--4-----------|--------3----|--4-----------|

[Cm] [Gm] [G#] [D#M] [Cm] [Gm] [G#] [D#M]  
 
 e|-------------|--------------|-------------|---------------|
 B|---4------3~-|--------------|---4------3~-|---------------|
 G|---5------3~-|----5------3~-|---5------3~-|----5------3-3-|
 D|---5------5~-|----6------5~-|---5------5~-|----6------5-5-|
 A|-3-----------|----6------6~-|-3-----------|----6------6-5-|
 E|--------3----|--4-----------|--------3----|--4------------|

bridge:
[Fm] [Gm] [Cm] [Bb] [Fm] [Gm] [Cm] [Bb]  
 
 e|-------------|--------------|-------------|--------------|
 B|---1------3--|----4------3~-|---1------3--|----4------3~-|
 G|---1------3--|----5------3~-|---1------3--|----5------3~-|
 D|---3------5--|----5------3~-|---3------5--|----5------3~-|
 A|-------------|--3-----------|-------------|--3-----------|
 E|-1------3----|---------1----|-1------3----|---------1----|

[Fm] [Gm] [Bb]  
 
 e|-------------|--------------|
 B|---1------3--|----3~--------|
 G|---1------3--|----3~--------|
 D|---3------5--|----3~--------|
 A|-------------|--------------|
 E|-1------3----|--1-----------|

verse 3:
[Cm] [Gm] [G#] [D#M] [Cm] [Gm] [G#] [D#M]  
 
 e|-------------|--------------|-------------|--------------|
 B|---4------3~-|--------------|---4------3~-|--------------|
 G|---5------3~-|----5------3~-|---5------3~-|----5------3~-|
 D|---5------5~-|----6------5~-|---5------5~-|----6------5~-|
 A|-3-----------|----6------6~-|-3-----------|----6------6~-|
 E|--------3----|--4-----------|--------3----|--4-----------|

[Cm] [Gm] [G#] [D#M] [Cm] [Gm] [G#] [D#M]  
 
 e|-------------|--------------|-------------|--------------|
 B|---4------3~-|--------------|---4------3~-|--------------|
 G|---5------3~-|----5------3~-|---5------3~-|----5------3~-|
 D|---5------5~-|----6------5~-|---5------5~-|----6------5~-|
 A|-3-----------|----6------6~-|-3-----------|----6------6~-|
 E|--------3----|--4-----------|--------3----|--4-----------|

interlude:
[Cm] [Gm] [G#] [D#M] [Cm] [Gm] [G#] [D#M]  
 
 e|-------------|--------------|-------------|--------------|
 B|---4------3~-|--------------|---4------3~-|--------------|
 G|---5------3~-|----5------3~-|---5------3~-|----5------3~-|
 D|---5------5~-|----6------5~-|---5------5~-|----6------5~-|
 A|-3-----------|----6------6~-|-3-----------|----6------6~-|
 E|--------3----|--4-----------|--------3----|--4-----------|

Solo 1:
 
 e|--------3------|---------------|---------------|-----1--3------|
 B|----4-6--------|----1-3-4------|----------1--3-|--4------------|
 G|--5--------0-3-|--1----------0-|-0-----3-------|---------------|
 D|---------------|-----------1---|---------------|---------------|
 A|---------------|---------------|---------------|---------------|
 E|---------------|---------------|---------------|---------------|

chorus
[Cm] [Gm] [G#] [D#M] [Cm] [Gm] [G#] [D#M]  
 
 e|-------------|--------------|-------------|--------------|
 B|---4------3~-|--------------|---4------3~-|--------------|
 G|---5------3~-|----5------3~-|---5------3~-|----5------3~-|
 D|---5------5~-|----6------5~-|---5------5~-|----6------5~-|
 A|-3-----------|----6------6~-|-3-----------|----6------6~-|
 E|--------3----|--4-----------|--------3----|--4-----------|

[Cm] [Gm] [G#] [D#M] [Cm] [Gm] [G#] [D#M]  
 
 e|-------------|--------------|-------------|--------------|
 B|---4------3~-|--------------|---4------3~-|--------------|
 G|---5------3~-|----5------3~-|---5------3~-|----5------3--|
 D|---5------5~-|----6------5~-|---5------5~-|----6------5--|
 A|-3-----------|----6------6~-|-3-----------|----6------6--|
 E|--------3----|--4-----------|--------3----|--4-----------|

bridge:
[Fm] [Gm] [C#] [Bb] [Fm] [Gm] [Cm] [Bb]  
 
 e|-------------|--------------|-------------|--------------|
 B|---1------3--|----4------3~-|---1------3--|----4------3~-|
 G|---1------3--|----5------3~-|---1------3--|----5------3~-|
 D|---3------5--|----5------3~-|---3------5--|----5------3~-|
 A|-------------|--3-----------|-------------|--3-----------|
 E|-1------3----|---------1----|-1------3----|---------1----|

[Fm] [Gm] [C#] [Bb] [Fm] [Gm] [Cm] [Bb]  
 
 e|-------------|--------------|-------------|-------|
 B|---1------3--|----4------3~-|---1------3--|----3~-|
 G|---1------3--|----5------3~-|---1------3--|----3~-|
 D|---3------5--|----5------3~-|---3------5--|----3~-|
 A|-------------|--3-----------|-------------|-------|
 E|-1------3----|---------1----|-1------3----|--1----|

Solo 2:
 
 e|-----3--------|------1-3-------|------3------|---------------|
 B|--1-----------|--1-4-------1---|--1--1-------|--1--3-4-------|
 G|--5-----0--3--|--1-------3---3-|--5-------3--|--1-------0--3-|
 D|--------5-----|----------1-----|----------5--|----------1----|
 A|--------------|----------------|-------------|---------------|
 E|--------------|----------------|-------------|---------------|
 e|------3-------|------1-3-------|-------3------|--------------|
 B|--1-----------|--1-4-------1---|--1--1--------|--1---3-4-----|
 G|--5------3----|--1-------3---3-|--5------0--3-|--1--------3--|
 D|---------5----|----------1-----|---------5----|-----------1--|
 A|--------------|----------------|--------------|--------------|
 E|--------------|----------------|--------------|--------------|

chorus:
[Cm] [Gm] [G#] [D#M] [Cm] [Gm] [G#] [D#M]  
 
 e|-------------|--------------|-------------|--------------|
 B|---4------3~-|--------------|---4------3~-|--------------|
 G|---5------3~-|----5------3~-|---5------3~-|----5------3~-|
 D|---5------5~-|----6------5~-|---5------5~-|----6------5~-|
 A|-3-----------|----6------6~-|-3-----------|----6------6~-|
 E|--------3----|--4-----------|--------3----|--4-----------|

[Cm] [Gm] [G#] [D#M]  
 
 e|-------------|--------------|
 B|---4------3~-|--------------|
 G|---5------3~-|----5------3~-|
 D|---5------5~-|----6------5~-|
 A|-3-----------|----6------6~-|
 E|--------3----|--4-----------|

[Cm] [Gm] [G#] [D#M]  
 
 e|-------------|--------------|r
 B|---4------3~-|--------------|e
 G|---5------3~-|----5------3--|p
 D|---5------5~-|----6------5--|e x3
 A|-3-----------|----6------6--|a
 E|--------3----|--4-----------|t

Outro:
[Cm] [Gm] [G#] [D#M] [Cm] [Gm] [G#] [D#M]  
 
 e|-------------|--------------|-------------|--------------|
 B|---4------3~-|--------------|---4------3~-|--------------|
 G|---5------3~-|----5------3~-|---5------3~-|----5------3~-|
 D|---5------5~-|----6------5~-|---5------5~-|----6------5~-|
 A|-3-----------|----6------6~-|-3-----------|----6------6~-|
 E|--------3----|--4-----------|--------3----|--4-----------|

[Cm] [Gm] [G#] [D#M] [Cm] [Gm] [G#]  
 
 e|-------------|--------------|-------------|----------------|
 B|---4------3~-|--------------|---4------3~-|----------------|
 G|---5------3~-|----5------3~-|---5------3~-|----5~------0-3-|
 D|---5------5~-|----6------5~-|---5------5~-|----6~----1-----|
 A|-3-----------|----6------6~-|-3-----------|----6~----------|
 E|--------3----|--4-----------|--------3----|--4-------------|

lyrics + chords
INTRO: ( Cm - Gm - G# - D#M ) x8
Verse 1
[Cm]Cultivate your [Gm]hunger bef[G#]ore you id[D#M]ealize
[Cm]Motivate your a[Gm]nger to ma[G#]ke them re[D#M]alize
[Cm]Climbing the mo[Gm]untain, ne[G#]ver coming[D#M] down?
[Cm]Break in to the[Gm] contents,[G#] never fallin[D#M]g down
( Cm - Gm - G# - D#M ) x2
Verse 2
[Cm]My knee is still sh[Gm]aking l[G#]ike I was [D#M]12
[Cm]Sneaking out the c[Gm]lassroom b[G#]y the back [D#M]door
[Cm]A man railed at me t[Gm]wice thouthg b[G#]ut I didn't[D#M] care
[Cm]Waiting is w[Gm]asting for p[G#]eople li[D#M]ke me
Chrus:
//[Cm]Don't tr[Gm]y to liv[G#]e so wis[D#M]e
[Cm]Don't cr[Gm]y coz yo[G#]u're so [D#M]right
[Cm]Don't dr[Gm]y with f[G#]akes or [D#M]fears
[Cm]Coz you will [Gm]hate yourself[G#] in the e[D#M]nd //
Interlude:
[Fm]You say[Gm]: "dr[Cm]eams are dr[Bb]eams
[Fm]I ain't[Gm] gonna p[Cm]lay the fo[Bb]ol anymore"
[Fm]You say[Gm]: "coz I st[Bb]ill got my soul"
[Cm]Take your time b[Gm]aby your blood ne[G#]eds to slow[D#M] down
"B[Cm]reach your soul" "r[Gm]each yourself [G#]before you gl[D#M]oom"
Re[Cm]flection of fea[Gm]r makes [G#]shadows of[D#M] nothing [Cm-] [Gm-]
S[G#]hadows of [D#M]nothing... ( Cm Gm G# D#M ) x2
[Cm]You still are b[Gm]lind, if you [G#]see the winding r[D#M]oad
[D#M]Coz there is always a straight way to the point you see
Chrus:
[Cm]Don't tr[Gm]y to liv[G#]e so wis[D#M]e
[Cm]Don't cr[Gm]y coz yo[G#]u're so [D#M]right
[Cm]Don't dr[Gm]y with f[G#]akes or [D#M]fears
[Cm]Coz you will [Gm]hate yourself[G#] in the e[D#M]nd
[Cm]Coz you will [Gm]hate yourself[G#] in the e[D#M]nd
[Cm]Coz you will [Gm]hate yourself[G#] in the e[D#M]nd
[Cm]Coz you will [Gm]hate yourself[G#] in the e[D#M]nd
Outro: (Cm - Gm - G# - D#M) x2
Engoy!!
Dont forget-
IF YOU LIKE IT GRADE IT!
Nethaniel Ben-Zaki,

Important: The song above is NOT stored on the Chordie server. The original song is hosted at www.guitaretab.com. Chordie works as a search engine and provides on-the-fly formatting. Chordie does not index songs against artists'/composers' will. To remove this song please click here.

Text color:
Chord color:
Chord grids: 
Font size:    
Page size: 

Bb C# Cm D#m Fm G# Gm
Rate #1 of 1 versions

Jango Player

Login - add to songbook

SHARE PAGE  



You need to log in to post comments