Guitar Tabs, Chords and Lyrics
Server problems seems to be fixed. Chordie has been experiencing problems with songs disappearing. These issues now seems to be fixed, but still verifying the fix. If you find anything strange, please email admin@chordie.com.


Yolanda Hayes  Fountains of Wayne

Intro
[A] [G] [D]  
 
 e--------------------------------||
 B--10--10--10--10--10--10--8--7--||
 G---9---9---9---9---9---9--7--7--|| (G and D played on piano)
 D--11--11--11--11--11--11--9--7--||x4
 A--------------------------------||
 E--------------------------------||

Fill 1 (repeat through verse)
[A] [F#min] [C#min]  
 
 e------------------------------------------------------------------|
 B--10--10--10--10--10--10--10--10---9---9---9---9--9---9---9---9---|
 G---9---9---9---9--11--11--11--11---9---9---9---9--9---9---9---9---|
 D--11--11--11--11--11--11--11--11--11--11--11--11--11--11--11--11--|
 A------------------------------------------------------------------|
 E------------------------------------------------------------------|

[D] [G] [A]  
 
 e----------------------------------------------------------------|
 B--10--10--10--10---8--8--8--8--10--10--10--10--10--10--10--10---|
 G--11--11--11--11---7--7--7--7---9---9---9---9---9---9---9---9---|
 D--12--12--12--12---9--9--9--9--11--11--11--11--11--11--11--11---|
 A----------------------------------------------------------------|
 E----------------------------------------------------------------|

[A]Quarter to [F#min]three
At the [C#min]DMV
That's when I [D]saw her[G]
She didn't see [A]me[G] [D]
[A]Behind window [F#min]B
Ex[C#min]plaining patiently How she[D] needs to see
[G]Six forms of I[A]D
[A]Oh tell me now
[G]Who do you [D]love
[F#min]Who do you lo[C#min]ve
[G]Who can you [D]trust with your love these [E]days
Yolanda Hayes[A]
Yola[G]nd[D]a Hay[A]es[G] [D]
[A]Quarter to [F#min]four
The [C#min]line's still out the door
I can [D]see in her eyes
She's [G]heard it all bef[A]ore[G] [D]
[A]She's looking [F#min]alright
De[C#min]spite the bright fluorescent lights
And I [D]wonder what she's [G]like when she gets [A]home at night
[A]Oh tell me now
[G]Who do you [D]love
[F#min]Who do you lo[C#min]ve
[G]Who can you [D]trust with your love these [E]days
Yolan[G]da[D] Hayes[A]
Yolan[G]da[D] Hayes[A]
Yolan[G]da[D] Hayes[A]
Yolan[G]da[D] Hayes[A]
It [G]occurs to me
[D]Suddenly
She's [Dmin]been here for an et[A]ernity
The [G]hours pass
The [D]days go by
But has [F]anybody really tried
To [Dmin]cross that line
To [G]get inside?
Horn solo chords
[Dmin] [G] [A]  
[Dmin] [G] [A]  
[Dmin] [G] [F] [G] [A]  
[A]A little more [F#min]time
And [C#min]now the girl is mine
I [D]hit her with my [G]very best pickup l[A]ine[G] [D]
[A]She puts down my [F#min]file
[C#min]Stares at me awhile
And I [D]swear I see her [G]crack a little [A]smile
Oh tell me now
[G]Who do you [D]love
[F#min]Who do you lo[C#min]ve
[G]Who can you [D]trust with your love these [E]days
Oh tell me now
[G]Who do you [D]love
[F#min]Who do you lo[C#min]ve
[G]Who can you [D]trust with your love these [E]days
Yolan[G]da[D] Hayes[A]
Yolan[G]da[D] Hayes[A]
Yolan[G]da[D] Hayes[A]
Yolan[G]da[D] Hayes[A]

Important: The song above is NOT stored on the Chordie server. The original song is hosted at www.guitaretab.com. Chordie works as a search engine and provides on-the-fly formatting. Chordie does not index songs against artists'/composers' will. To remove this song please click here.

Text color:
Chord color:
Chord grids: 
Font size:    
Page size: 

A C#min D Dmin E F F#min G
Rate #2 of 5 versions

Jango Player

Login - add to songbook

SHARE PAGE  




You need to log in to post comments