Guitar Tabs, Chords and Lyrics
Major upgrade!! After one year development the new version of Chordie is now online! Please give feedback.


Built for Sin   Framing Hanley

 
 -----------------------------------------------------------------------------

 


 Built For Sin -- Framing Hanley


 

 
 -----------------------------------------------------------------------------

 


 Tabbed by: thewakebehindyou


 Date: 12/08/2007


 Email: thewakebehindyou@excite.com


 


 'Built for Sin' by Framing Hanley from their debut album, The Moment.


 


 Tuning: C# G# C# F# A# D#


 


 Feedback is appreciated, transcribed completely by ear.


 


 ===============================================================================


 


 Verse x3


 "There's a train leaving town..."


 "There's a lie to every truth..."


 ~~~


 

 
 e|---7----------7----------7----------7------7----------------------|
 B|------8p7--7-----8p7--7-----8p7--7-----8p7--10--------------------|
 G|-----7----------7----------7----------7---------------------------|
 D|----9----------9----------9----------9----------------------------|
 A|------------------------------------------------------------------|
 E|------------------------------------------------------------------|

 


 


 Pre-Chorus


 "Say so long to innocence..."


 ~~


 

 
 e|-----------------10------------------------10--------|
 B|-10-12p10--------------------------------------------|
 G|---------11-12-11--11-12-11-12--11-12-11-11--12-11---|
 D|-----------------------------------------------------|
 A|-----------------------------------------------------|
 E|-----------------------------------------------------|

 


 


 Chorus


 


 

 
 e|-------12-----12--------14------14---------------|
 B|---------------------10---12-10---12-10----------|
 G|--11-12--12-11--12-11----------------------------|
 D|-------------------------------------------------|
 A|-------------------------------------------------|
 E|-------------------------------------------------|
 e|-------10-----10-----10-----10-------------------|
 B|-------------------------------------------------|
 G|--11-12--12-11--12-11--12-11--12-11-11-12--------|
 D|-------------------------------------------------|
 A|-------------------------------------------------|
 E|-------------------------------------------------|
 e|-------12-----12--------14------14---------------|
 B|---------------------10---12-10---12-10----------|
 G|--11-12--12-11--12-11----------------------------|
 D|-------------------------------------------------|
 A|-------------------------------------------------|
 E|-------------------------------------------------|
 e|-------10-----10-----10-----10-------------------|
 B|-------------------------------------------------|
 G|--11-12--12-11--12-11--12-11--12-11-11-12--------|
 D|-------------------------------------------------|
 A|-------------------------------------------------|
 E|-------------------------------------------------|

 


 ~~~~~~~~~~~~~~


 

 
 e|-------12-----12--------14------14------|--------------|
 B|---------------------10---12-10---12-10-|--------------|
 G|--11-12--12-11--12-11-------------------|-9------------|
 D|----------------------------------------|--------------|
 A|----------------------------------------|--------------|
 E|----------------------------------------|--------------|

 


 (1st & 3rd time)


 


 Bridge


 "You can scream out loud, but..."


 


 x16 each chord


 

 
 e|---13------10-----13------10-----13------10-----13------10-----15---|
 B|---13------10-----13------10-----13------10-----13------10-----15---|
 G|---12------9------12------9------12------9------12------9------14---|
 D|---10------7------10------7------10------7------10------7------12---|
 A|---10------7------10------7------10------7------10------7------12---|
 E|---10------7------10------7------10------7------10------7------12---|


Important: The song above is NOT stored on the Chordie server. The original song is hosted at www.guitaretab.com. Chordie works as a search engine and provides on-the-fly formatting. Chordie does not index songs against artists'/composers' will. To remove this song please click here.

This song is displayed as text-only. Transposing and tuning is only available for chordpro-songs.
Rate #2 of 5 versions

Jango Player

Login - add to songbook

SHARE PAGE  




You need to log in to post comments