Guitar Tabs, Chords and Lyrics
Major upgrade!! After one year development the new version of Chordie is now online! Please give feedback.


Calistan  Frank Black

[Am] [F] [C]  
[Am] [F] [C]  
[Am] [F] [C] [G] [F] [A] [F]  
Lead (tabbed by Derek)
 
 e--5----------3-----5----------------------------|
 b--5-------------5-----2-------------------------|
 g-------------------------2--0-------------------|
 d-------------------------------3----2-----------|
 a------------------------------------------------|
 e---------------------------------------3---3/5--|
 -------0-----------------------------0------------3--1--0-|
 --1----------3--------3----------1-----2-------1----------|
 ----0-----0------2p0------2--0-----------2---0------------|
 -------------------------------------------3--------------|
 ----------------------------------------------------------|
 ----------------------------------------------------------|

p = pull off
Am F C C\B
I took three days to drive down one street
Am F C C\B
The radio on, tuned to the big fleet
[Am]Invisible p[F]lanes are cracking the [C]concrete
[G]That's just what [F]some people say, [A] Hey [F]Hey
Am F C C\B
I put down my blanket on Cigarette Butt Beach
[Am]I saw the old [F]man, he was doing [G]OK
[Am]He's making his last [F]stand
On old [C]bottles and [Am]cans
[G]'Round there, [F]Calistan way,[A] Hey [F]Hey
[E]Used to be six[F]teen lanes[C]
Used to be [B]Nuevo Spain[Bb]
Used to be [G]Juan Wayne
[E]Used to be [F]Mexico[C]
Used to be [B]Navajo[Bb]
Used to be [G]yippy-ay-[Am]I-don't [F]know[C] [C/B]
[Am] [F] [G]  
[Am] [F] [C] [G] [F] [A] [F]  
Am F C C\B
Went in from the weather when I got wheezy
[Am]I play some p[F]achinko I play [G]pachisi
[Am]And St. Anne i[F]s still making it bre[C]ezy
In the [G]valley of tar that [F]once was L.A.[A] Hey [F]Hey
Am F C C\B
And my best friend he's the king of karaoke
[Am]He struck up a [F]chord and he took it [G]away
[Am]Out of the [F]pan
[C]And into Ja[Am]pan
[G]'Round there, [F]Calistan way, [A] Hey [F]Hey
Pause.. 2-3-4
[E]Used to be six[F]teen lanes[C]
Used to be [B]Nuevo Spain[Bb]
Used to be [G]Juan Wayne
[E]Used to be [F]Mexico[C]
Used to be [B]Navajo[Bb]
Used to be [G]yippy-ay-[Am]I-don't [F]know[C] [C/B]
[Am] [F] [C]  
[Am] [F] [C]  
[Am] [F] [C] [G] [F] [A] [F] 

Important: The song above is NOT stored on the Chordie server. The original song is hosted at www.guitaretab.com. Chordie works as a search engine and provides on-the-fly formatting. Chordie does not index songs against artists'/composers' will. To remove this song please click here.

Text color:
Chord color:
Chord grids: 
Font size:    
Page size: 

A Am B Bb C C/B E F G
Rate #1 of 5 versions

Jango Player

Login - add to songbook

SHARE PAGE  




You need to log in to post comments