Guitar Tabs, Chords and Lyrics
Major upgrade!! After one year development the new version of Chordie is now online! Please give feedback.


It Must Be a Camel  Frank Zappa

IT MUST BE A CAMEL
As recorded by Frank Zappa
(From the 1969 Album HOT RATS)
Music by Frank Zappa
x 8[Fmaj9] 7 9 8 x x 3[Csus2] 5 5 3 3 x [Bbsus2]1 3 3 1 1 x 0[A9sus4] 9 9 8 10
3 5[Gsus4] 5 5 3 3 x [D7sus4]5 x 5 5 3 x 5 [D9]x 5 5 5 7 9[B7sus4] 9 9 10 x
x 0 [Asus2]7 9 10 10 x [Ebsus2]6 8 8 6 6 x 5 [Dm7]7 5 6 5 x 11[Abmaj9] 10 12 11 x
1 3[Fsus2] 3 0 1 1 0[Emaj7+11] 7 6 8 9 6 x [A6add11]0 7 8 7 9 4 6 [G#m]6 4 4 4
3 x[Eb/G] 5 3 4 3 1[Db7+11/F] x 3 0 2 3 1 x[Bb6/F] 3 3 3 3 2 [Gbsus2]4 6 x x x
Asus2V Ebmaj7 Cmaj7+11 Gmaj7
5 7 9 x x x x 6 8 7 8 6 8 x 10 9 7 7 3 x 5 7 7 7
7[Bmaj7+11] x 9 8 6 6 4 [Absus2]6 8 x x x x [F6add9]8 7 7 8 7 x [D6sus2]5 7 9 0 x
9 7[A/C#] 7 x x x x 9[D/F#] 7 7 x x 7 x [Bm]9 7 7 x x 7 [Em7]9 7 8 7
8 x [D/C]7 7 7 x 6 [Bbmaj9]x 5 5 6 5
Gtr I (E A D G B E) - 'Piano'
Gtr II (E A D G B E) - 'Horns Arr. For Gtr.'
Gtr III (E A D G B E) - 'Keyboard arr. for gtr.'
Gtr IV (E A D G B E) - 'Keyboard arr. for gtr.'
Gtr V (E A D G B E) - 'Clean Elec. w/compression'
Gtr VI (E A D G B E) - 'Dist. Elec.'
Intro
Slow Q=69
[Fmaj9] [Csus2] [Bbsus2] [A9sus4] [Gsus4] 
[1/163/4] Gtr I
S H. H +E E Q. +S S +Q H. Q Q +E E
 
 |---|---------|-3----(3)-3-|-1----(1)-1-(1)--|-10-------|----3--(3)---|
 |---|-8-------|-3----(3)-3-|-1----(1)-1-(1)--|--8-------|----3--(3)-3-|
 |---|-9-------|-5----(5)-5-|-3----(3)-3-(3)--|--9-------|----5--(5)-5-|
 |---|-7-------|-5----(5)-5-|-3----(3)-3-(3)--|--9-------|----5--(5)-5-|
 |---|-8-------|-3----(3)---|-1----(1)-1-(1)--|--0-------|-5--5--(5)---|
 |---|---------|------------|-----------------|----------|-3--3--(3)---|

[D7susD9]H Q [Csus2]Q Q Q [B7sus4] H Q [Asus2] H +E E [Ebsus2]H Q
 
 |-3----5--|-3--8--15--|-^12-------|-10----(10)-12-|-6----6---|
 |-5----5--|-3--8--15--|-^10-------|-10----(10)-10-|-6----6---|
 |-5----5--|-5--7--12--|-^-9----9--|--9-----(9)--9-|-8----8---|
 |-x----x--|-5--5--12--|-^-9----9--|--7-----(7)----|-8----8---|
 |-5----5--|-3---------|-^-9----9--|--0-----(0)----|-6----6---|
 |---------|-----------|-^-7----7--|---------------|----------|

[Dm7]H Q [Abmaj9] H Q [Gsus4]E. S E. S E. S
 
 |-5----5--|-----------|-3--3-3--3-3--3-|
 |-6----6--|-11----11--|-3--3-3--3-3--3-|
 |-5----5--|-12----12--|-5--5-5--5-5--5-|
 |-7----7--|-10----10--|-5--5-5--5-5--5-|
 |-5----5--|-11----11--|-5--------------|
 |---------|-----------|-3--------------|

[Bbsus2]E. S E. S +S E S [Fsus2]E. S E. S +S S S S
 
 |-1--1-1--1-(1)-1-1-|-1--1-1--1-(1)---1---|
 |-1--1-1--1-(1)-1-1-|-1--1-1--1-(1)---1---|
 |-3--3-3--3-(3)-3-3-|-0--0-0--0-(0)---0---|
 |-3--3-3--3-(3)-3-3-|-3--3-3--3-(3)-3---3-|
 |-1--1-1--1-(1)-1-1-|-3--3-3--3-(3)-3---3-|
 |-------------------|-1--1-1--1-(1)-------|

$
[Emaj7+11]Gtr II [Fmaj9]Gtr I
H. H. H. H. H.
|
[/] 
Gtr I Gtr II
 
 |-3-| |--3--|

H E E E H E E E H. H. H S S S S
 
 |-6-----------|-6--------------|-18-------|-18-------||---------7------|
 |-9-----------|-9--------------|-21-------|-21-------||-----------8----|
 |-8-----------|-8--------------|-20-------|-20-------||-------------7--|
 |-6-----------|-6-----------14-|-18-------|-18-------||-------7--------|
 |-7---------7-|----------14----|----------|----------||----------------|
 |-0-----0-7---|-------12-------|----------|----------||-8--------------|

[Csus2]Q. +S S +Q [Bbsus2]Q. E +E E
| | | | | | | |
[/] [/] [/] [/] [/] [/] [/] [/] 
H S S S S Q +S S S S S S S S
 
 |--------------10-7----|--------------------------|
 |-------------------10-|------------------10------|
 |----------------------|-------------7--9----7----|
 |-5---------10---------|--------------------------|
 |----------------------|---------7s8-----------10-|
 |----------------------|-6---(6)------------------|

[A9sus4]E. S Q Q [Gsus4]E E Q E E
| | | | | | | | |
[/] [/] [/] [/] [/] [/] [/] [/] [/] 
|--3---|
S S S S S S S S S S E Q Q +E E E
 
 |--------------------7-----|------------------|
 |-----------------10---7---|------------------|
 |----9-7--------7----------|-----5--(5)-------|
 |-7------9-----------------|------------7-----|
 |------------10------------|----------------7-|
 |----------8---------------|------------------|

To Coda
[D7sus4]E E H [Csus2]Q. E +S E. [B7sus4]E E S E. E E
| | | | | | | | | | | | |
[/] [/] [/] [/] [/] [/] [/] [/] [/] [/] [/] [/] [/] 
|-3--|
Q +E E E S S S S Q S S S S S S S S S S S S S S S S S S S S
 
 |-------------------7-|----------------7------|------------------7-10------|
 |-5---(5)---------5---|-----------5--7----5---|---------7--------7-10------|
 |---------5-----------|-----------------------|-----7-9---7-----------9-11-|
 |-----------5---7-----|-------3s5-----------7-|--------------7-9------7--9-|
 |-------------5-------|-3---------------------|-7-9------------------------|
 |---------------------|-----------------------|----------------------------|

[Asus2] Q. E +E E
| | | |
[/] [/] [/] [/] 
 
 |-----5------| |------5------| |------5------|

S S S S S S S S S S S S S S S
 
 |-/12--12-12-12-15-/12-12-12---12-15-/12-12-12---12-15-|
 |-/12--12-12-12-15-/12-12-12---12-15-/12-12-12---12-15-|
 |------------------------------------------------------|
 |------------------------------------------------------|
 |------------------------------------------------------|
 |------------------------------------------------------|

[Ebsus2]  
[E]| [E]| [E]| [E]| [E]| [E]|
[/] [/] [/] [/] [/] [/] 
 
 |------5------| |------5------| |------5------|

S S S S S S S S S S S S S S S
 
 |-/12-12-12---12-15-/12-12-12---12-15-/12-12-12---12-15--|
 |-/12-12-12---12-15-/12-12-12---12-15-/12-12-12---12-15--|
 |--------------------------------------------------------|
 |--------------------------------------------------------|
 |--------------------------------------------------------|
 |--------------------------------------------------------|

[Dm7]E E Q E E
| | | | |
[/] [/] [/] [/] [/]  
 
 |-----5-----| |------5------|

Q S S S S S S S S S S
 
 |-------------------------------------|
 |-------------------------------------|
 |-------------------------------------|
 |-----11-11-11-11-14-11-11-11---11-14-|
 |-----11-11-11-11-14-11-11-11---11-14-|
 |-------------------------------------|

[Abmaj9]E E Q Q
| | |
[/] [/] [/]  
 
 |-----5-----|

Q S S S S S T T T T T T T T
 
 |--------------------------------------------|
 |--------------------------------------------|
 |--------------------------------------------|
 |-----12-12-12-12-15-12-12-12-15-12-12-12-15-|
 |-----12-12-12-12-15-12-12-12-15-12-12-12-15-|
 |--------------------------------------------|

[Gsus4] E. S +H
| | |
[/] [/] [/]  
s s s S s s s S s s s S
 
 |-10--10-10-13-10-10-10-13-10-10-10-13-|
 |-10--10-10-13-10-10-10-13--9--9--9-10-|
 |--------------------------------------|
 |--------------------------------------|
 |--------------------------------------|
 |--------------------------------------|

[Bbsus2] E Q E +E E
| | | | |
[/] [/] [/] [/] [/]  
 
 |------5------|

s s s S s s s S S S S S S
 
 |-10-10-10-13-10-10-10-13-10-13-10----9--8--|
 |--9--9--9-13--x--x--x-13--x-13--x----x--x--|
 |-------------12-12-12----12----12---11-10--|
 |-------------------------------------------|
 |-------------------------------------------|
 |-------------------------------------------|

[Fsus2] Q. E +S E. [Emaj7+11]H. H. H. W
| | | | | | |
[/] [/] [/] [/] [/] [/] [/] 
+H S T T T T T T H. +H. +Q H H.
 
 |--(8)--------------------|---------|----------|-----------|-------||
 |-------------------------|---------|----------|-----------|-------||
 |-(10)--------------------|---------|----------|-----------|-------||
 |-------------9p7p5-------|---------|----------|-----------|-------||
 |-------------------8p6---|---------|----------|-----------|-------||
 |-----------------------8p|=7-------|-(7)------|-(7)-------|-------||

[A6add11]Gtr I[G#m] [Gbsus2]
H. H. H.
| | |
[/] [/] [/] 
Gtr III
 
 |-3--| |-3--| |-3-| |--5--|

Q Q +E E E E E E S S S E +Q +Q +S S S S S E S S
 
 |-----19--(19)-7-9-|-11--7-7-7h9p7-6-(6)--|-(6)--(6)---------------|
 |------------------|----------------------|------------------------|
 |------------------|----------------------|----------8h9-8-8-9-8h9-|
 |------------------|----------------------|------------------------|
 |------------------|----------------------|------------------------|
 |------------------|----------------------|------------------------|

|
| Gtr IV
 
 | |-3--| |-3--| |-3-| |--5--|

| Q Q +E E E E E E E S E +Q Q +S S S S S E S S
 
 |------------------|----------------------|------------------------|
 |--------------9-7-|-----7---7h==9-7-(7)--|--6---(6)---------------|
 |------------------|--9----9--------------|------------------------|
 |------7---(7)-----|----------------------|----------8h9-8-8-9-8h9-|
 |------------------|----------------------|------------------------|
 |------------------|----------------------|------------------------|

[Db7+11/F]H. [Bb6/F] H. [Bmaj7+11] H.
| | |
[/] [/] [/] 
 
 |--3---| |--3---|

Q +E. S +Q Q Q +E E E Q Q +E E E
 
 |-------------------|------15--(15)-------|------13--(13)----13-|
 |-7---(7)11-(11)----|---------------13----|---------------------|
 |-------------------|------------------10-|---------------------|
 |-------------------|---------------------|-11------------11----|
 |-------------------|---------------------|---------------------|
 |-------------------|---------------------|---------------------|

|
| |--3---|
| Q E. S +E E H. Q Q +E E E
 
 |-------------------|---------------------|---------------------|
 |-------------------|---------------------|---------------------|
 |-------------------|---------------------|------11--(11)----11-|
 |-6----8s18-(18)-18s|=12------------------|---------------------|
 |-------------------|---------------------|-11------------11----|
 |-------------------|---------------------|---------------------|

[Asus2] H. [Ebmaj7] H.
| |
[/] [/]  
S E. +E. S +E E H.
 
 |-11----------------------|-10-------|
 |-----12--(12)-12-(12)-11-|----------|
 |-------------------------|----------|
 |-------------------------|----------|
 |-------------------------|----------|
 |-------------------------|----------|

|
| S E. +E. S +E E H.
 
 |-------------------------|----------|
 |-------------------------|----------|
 |--------------13-(13)-11-|-12-------|
 |--9----------------------|----------|
 |-----12--(12)------------|----------|
 |-------------------------|----------|

[Cmaj7+11] H. [Gmaj7] H. [Bmaj7+11] H.
| | |
[/] [/] [/] 
|--3---|
Q E E +Q Q E E +E E E H.
 
 |--------17-(17)--|--------19-(19)----19-|-----------|
 |-----------------|----------------------|-14tr12----|
 |-12--------------|-14-------------14----|-----------|
 |-----------------|----------------------|-----------|
 |-----------------|----------------------|-----------|
 |-----------------|----------------------|-----------|

|
| H. H. H.
 
 |-----------------|----------------------|-----------|
 |-----------------|----------------------|-----------|
 |-----------------|----------------------|-11tr10----|
 |-----------------|----------------------|-----------|
 |-----------------|----------------------|-----------|
 |-----------------|----------------------|-----------|

[Absus2] H. [F6add9] H.
| |
[/] [/]  
|-3--|
S S S E E. S Q E. S +E. S +E E
 
 |----------------------|------------------------|
 |-----------11-----11--|-----12-(12)---------12-|
 |--7h8h10-8------8-----|-------------12-(12)----|
 |----------------------|------------------------|
 |----------------------|------------------------|
 |----------------------|------------------------|

|
| Q E. S Q E. S +E. S +E E
 
 |----------------------|------------------------|
 |----------------------|------------------------|
 |------------8------8--|------------------------|
 |----------------------|-----14-(14)---------14-|
 |-10------------10-----|-12----------12-(12)----|
 |----------------------|------------------------|

[D6sus2] H. [A/C#]Q. [D/F#]E +Q [Bm]Q. [Em7]E +Q
| | | | | | |
[/] [/] [/] [/] [/] [/] [/] 
Gtr V
|--3--|
S S S S S S S S S E e Q. E +Q Q. E +Q
 
 |--12--14-14-13-13h14p13-14p13-13-14-|-------------|-------------||
 |-(12)-------------------------------|-------------|------8-(8)--||
 |------------------------------------|-------------|-7-----------||
 |------------------------------------|------7-(7)--|-------------||
 |------------------------------------|-7-----------|-------------||
 |------------------------------------|-------------|-------------||

| +H.
|
| +H. H. H.
 
 |------------------------------------|-------------|-------------||
 |------------------------------------|-------------|-------------||
 |------------------------------------|-------------|-------------||
 |-(14)-------------------------------|-------------|-------------||
 |------------------------------------|-------------|-------------||
 |------------------------------------|-------------|-------------||

Double-time Q=148
[D/C]  
[4/4] H Q Q +H H +Q H Q
 
 |------------|-------------|------8-------|
 |------------|--------8----|-(8)----------|
 |---------7--|-(7)---------|--------------|
 |-7----------|-------------|--------------|
 |------------|-------------|--------------|
 |------------|-------------|--------------|

H Q Q +Q Q H Q H.
 
 |------------|---------5----|----10-----|
 |---------5--|-(5)----------|-----------|
 |-4----------|--------------|-----------|
 |------------|--------------|-----------|
 |------------|--------------|-----------|
 |------------|--------------|-----------|
 |-3-| |-3-| |-3-|

q E E H E E E E E E S e. q q S S e q E S S E E E H.
 
 |-10------------|-----------------------|-8----5---8--5-8-5-|---5---5-----|
 |-----10-8-7----|-10---8-7-------10--8--|--------7----------|-8---8-------|
 |---------------|----------9-7----------|-------------------|-------------|
 |---------------|-----------------------|-------------------|-------------|
 |---------------|-----------------------|-------------------|-------------|
 |---------------|-----------------------|-------------------|-------------|
 |-3--| |3| |-3-| |-3-| |-3-|

E E E Q E E Q E E S S e E E e e e e e e
 
 |---10p5-5--------5-5-|-5-10p5---5-5-5-5-5-5-5-5-|
 |-----------8p(7)-----|--------7-----------------|
 |---------------------|--------------------------|
 |---------------------|--------------------------|
 |---------------------|--------------------------|
 |---------------------|--------------------------|
 |-3--| |-----6-----|

Q +E E E S S S S S S S S S S
 
 |-5--(5)-5-5-5-10p5h10-5h10p5-5h10p5-|
 |------------------------------------|
 |------------------------------------|
 |------------------------------------|
 |------------------------------------|
 |------------------------------------|
 |-3--| |-3--|

E E E +Q E S S E E E
 
 |-5----5-(5)--5-10p5---5----|
 |---10---------------8---10-|
 |---------------------------|
 |---------------------------|
 |---------------------------|
 |---------------------------|

S S S S S S S S S S S S S S E S S S S +Q S S E Q
 
 |-5h10-5h10-5----------5h10p5h10-5-10---|-5-5-5-5-(5)--5-5---5----|
 |-------------10-10-10------------------|-------------------------|
 |---------------------------------------|-------------------------|
 |---------------------------------------|-------------------------|
 |---------------------------------------|-------------------------|
 |---------------------------------------|-------------------------|

[B7sus4] ~~~~
Q a +Q +H +Q E e e S S S S E
 
 |--------------------------|--------------7-----------|
 |----10pb12==(10)r=(10)----|-(10)----7-10---7-10p7----|
 |--------------------------|-----------------------10-|
 |--------------------------|--------------------------|
 |--------------------------|--------------------------|
 |--------------------------|--------------------------|

|--3---|
Q a Q Q a +S +S S S Q E Q. +Q E a +S +S
 
 |--------------------------------|---------------------------------|
 |-7------------------------------|---------------10pb12==(10)r(10)-|
 |---10s9-7-9pb11==(9)r(9)p7------|---------------------------------|
 |---------------------------9p7--|-7h9----(9)----------------------|
 |--------------------------------|---------------------------------|
 |--------------------------------|---------------------------------|

~~~~~~~~~~~~~
|3|
+E +E E a +E +H +Q E e E q E E
 
 |-------------------------------------|--------------7-9s12-|
 |-(10)b12-(10)---10pb12==(10)r(10)----|-(10)----10----------|
 |-------------------------------------|---------------------|
 |-------------------------------------|---------------------|
 |-------------------------------------|---------------------|
 |-------------------------------------|---------------------|

~~~~~~~~~~~~~~~~~~
|-3-|
+S E. +H. +H H E E E E E +H
 
 |-(12)-9--(9)------|-(9)---------|------------------|
 |------------------|-------------|-7----------------|
 |------------------|-------------|-----7------------|
 |------------------|-------------|-------7h9-(9)----|
 |------------------|-------------|------------------|
 |------------------|-------------|------------------|

|-3--| |3| |3|
Q Q Q Q Q E S S S H Q E Q H. S S E S S E Q. E
 
 |--------------|------------------|----------------|--------------------|
 |--------------|------------------|----------------|--------------------|
 |--------------|------------------|----------------|--------------------|
 |----7--7-11-7-|-7-9p7------------|----------------|-----------2-4----4-|
 |--------------|-------9-7----7-9-|-5b5.5----------|-----0h2s4----------|
 |--------------|------------------|--------7-------|-0h2----------------|

S S S S E. S E Q E a E E S S E E E E S S S S S S S S S S Q Q
 
 |---------------------|-------------------------|------------------------||
 |---------------------|-------------------------|------------------------||
 |-2h4p2---------------|-------------------------|-2h4p2---2--------------||
 |-------4-2--2-2-4--4-|-----------2-2h4---(4)-4-|-------4---4p2---2--4---||
 |---------------------|-----0-2s4---------------|---------------4--------||
 |---------------------|-0h2---------------------|------------------------||

[Bbmaj9]Gtrs II, III
 
 |---3---| |-3--|

H H +H H H Q Q Q E E E E
 
 |-----------|----------8--|-8----------------|
 |-----------|------10-----|---8----8h10-8----|
 |-----------|-------------|-----10--------10-|
 |------7----|-(7)---------|------------------|
 |-----------|-------------|------------------|
 |-----------|-------------|------------------|
 |--3--| |--3---|

E. S S S S E +Q Q +H +Q Q Q
 
 |-------------15-17-(17)--20--|-(20)----(20)-15-----|
 |----------15-----------------|-----------------18--|
 |-9--12-14--------------------|---------------------|
 |-----------------------------|---------------------|
 |-----------------------------|---------------------|
 |-----------------------------|---------------------|

|--3--|
Q Q Q Q Q E E E E E E E E
 
 |-15------12-------|----------------------15-|
 |------------15----|-------------------15----|
 |------------------|-12-14-12-------14-------|
 |-----15--------15-|----------15-14----------|
 |------------------|-------------------------|
 |------------------|-------------------------|

W E E E E E E Q +Q Q H
 
 |-20--------|---17p15-------13-12--|-(12)----------|
 |-----------|---------15-----------|---------------|
 |-----------|------------14--------|---------------|
 |-----------|----------------------|---------------|
 |-----------|----------------------|---------------|
 |-----------|----------------------|---------------|

Q E E H E E E E E E E E
 
 |----------12----|---------------12----10-|
 |-------13-------|------------10----------|
 |----12----------|------------------12----|
 |----------------|---12p10-12-------------|
 |----------------|------------------------|
 |----------------|------------------------|

E E E E E E E E E E Q Q E E W
 
 |------------12p10------|-10----------------|-12----|
 |----13-----------------|----13----------13-|-------|
 |-10----9h10-------10p9-|-------------12----|-------|
 |-----------------------|-------------------|-------|
 |-----------------------|-------------------|-------|
 |-----------------------|-------------------|-------|
 |---3----|

+H H H W +W +H H W Wx2
 
 |-(12)--10------|-----------|-------------|--------------|----------||--------|
 |---------------|-10--------|-(10)--------|-(10)---------|----------||--------|
 |-----------12--|-----------|-------------|--------------|----------||--------|
 |---------------|-----------|-------------|--------------|----------||--------|
 |---------------|-----------|-------------|--------------|----------||--------|
 |---------------|-----------|-------------|--------------|----------||--------|

Gtr VI
Q Q S S E Q S S S S E. S a E E Q W H Q E E
 
 |----------------|-----------------------|----------|--------------|
 |----------------|-----------------------|----------|--------------|
 |-2--2--5p4p2-2--|-2h4p2p0-2----2h4p2-2--|----------|-----------12-|
 |-0--0--0-----0--|-0-------0------0---0--|----------|--------------|
 |----------------|------------0----------|----------|--------------|
 |----------------|-----------------------|----------|--------------|

S S S S E S S E S S E S S
 
 |-10-(10)-10-15p10-10-15p10-10-15p10-10-15p|
 |------------------------------------------|
 |------------------------------------------|
 |------------------------------------------|
 |------------------------------------------|
 |------------------------------------------|

E S S E S S S S Q E Wx2
 
 |-10-10-15p10-10--15p10-10-10-------|--------|
 |-------------(0)--------------(10)-|--------|
 |-----------------------------------|--------|
 |-----------------------------------|--------|
 |-----------------------------------|--------|
 |-----------------------------------|--------|

E E E E E E E E E E Q Q E. S
 
 |-------------------------|----------------|
 |-13p12-------------------|----------------|
 |-------12----------------|----------------|
 |----------12-------------|----------------|
 |-------------12s10-10h12-|-8--------------|
 |-------------------------|---8-8--8--8--8-|

D.S. al Coda
H. Q Wx6 W
 
 |--------------|------------|-------||
 |--------------|------------|-------||
 |--------------|------------|-------||
 |--------------|------------|-------||
 |--------------|------------|-------||
 |-10s=====(0)--|------------|-------||

Coda
A Tempo Q=69
&
[Csus2] [B7sus4]  
[3/4] Gtr II
H. S S S S S S T T S S S S S
 
 |-5-------|---5---------5h7h9-7p5-----|
 |---------|-7---5---5-----------------|
 |---------|-------7---7-----------7h9-|
 |---------|---------------------------|
 |---------|---------------------------|
 |---------|---------------------------|

[Asus2] S S S S S S S S S S S S [Ebsus2] S S S S S S S S S S S S
 
 |-------------------------------------|-------------------------------------|

|-10p=8h10p8h10p8h10p==8h10p8h===10p8-|-10p8h10p===8h10p8h===10p8h10p8h10p8-|
 
 |-------------------------------------|-------------------------------------|
 |-------------------------------------|-------------------------------------|
 |-------------------------------------|-------------------------------------|
 |-------------------------------------|-------------------------------------|

|
| Gtr III
 
 | |-------3--------| |--------3--------|

| S E S Q Q Q Q Q Q Q
 
 |------------10------7----------------|-------------------13----------------|
 |----------8------------------10------|---------13----------------13--------|
 |-------------------------------------|-12----------------------------------|
 |----10-------------------------------|-------------------------------------|
 |--7----------------------------------|-------------------------------------|
 |-------------------------------------|-------------------------------------|

[Dm7] S S S S S S S S S S S S
 
 |---------------------------------------|

|-10p=9h10p=9h10p=9h10p=9h10p=9h10p=8---|
 
 |---------------------------------------|
 |---------------------------------------|
 |---------------------------------------|
 |---------------------------------------|

|
| S S S S S S S S S S S S
 
 |---------------------------------------|

|-13h15p13h15p13h15p13h15p13h15p13h15---|
 
 |---------------------------------------|
 |---------------------------------------|
 |---------------------------------------|
 |---------------------------------------|

[Abmaj9] +Q Q +S S S S [Gsus4] Q +S S S S Q
 
 |-------------------10-------|------------10-----------|
 |--(8)-----------------11----|---------------11--------|
 |-------------------------10-|------------------10-----|
 |-------10-----(10)----------|--10---(10)----------10--|
 |----------------------------|-------------------------|
 |----------------------------|-------------------------|

|
| +Q E. S Q +H.
 
 |----------------------------|-------------------------|
 |-(15)-----------------------|-------------------------|
 |-----------12--12-----------|-(12)--------------------|
 |-----------12--12-----------|-(12)--------------------|
 |----------------------------|-------------------------|
 |----------------------------|-------------------------|

[Bbsus2] [Fsus2] |--3---|
S S S S Q +S S S S E Q E +E E E
 
 |---10-----------------------10---------|--------10-(10)-------|
 |------11-------------------------11----|----------------11----|
 |------------10----------------------10-|-------------------10-|
 |---------------10------(10)------------|----10----------------|
 |---------------------------------------|----------------------|
 |---------------------------------------|----------------------|

|
 
 | |-------------5:3-------------|

| Q Q Q Q Q H.
 
 |---------10--------6-------------------|----------------------|
 |---------13-------10-6-----------------|----------------------|
 |---------------------9---------5-------|-5--------------------|
 |-------------------------------8-------|-5--------------------|
 |---------------------------------------|----------------------|
 |---------------------------------------|----------------------|

[Emaj7+11]H T T T T +E +E T T T T S E T T Q
 
 |--------------------|--------------------------|
 |--------------------|--------------------------|
 |-8---------11p8-(8)-|-(8)------11p8h9p8-8h9p8--|
 |------8h11----------|-----8h11-----------------|
 |--------------------|--------------------------|
 |--------------------|--------------------------|

|
| H Q +Q H
 
 |-6----6-------------|-(6)-----------6----------|
 |-7----7-------------|-(7)-----------7----------|
 |-4----4-------------|-(4)-----------4----------|
 |--------------------|--------------------------|
 |--------------------|--------------------------|
 |--------------------|--------------------------|

T T T T S S S S +T T T T Q +H.
 
 |--------------------------------|--------*|
 |--------------------------------|--------*|
 |------11p8h9p8-9p8-(8)-9p8h9p8--|-(8)----*|
 |-8h11---------------------------|--------*|
 |--------------------------------|--------*|
 |--------------------------------|--------*|

|
| H. +H.
 
 |-6------------------------------|-(6)----*|
 |-7------------------------------|-(7)----*|
 |-4------------------------------|-(4)----*|
 |--------------------------------|--------*|
 |--------------------------------|--------*|
 |--------------------------------|--------*|

Duration Legend
 
 ---------------
 W - whole; H - half; Q - quarter; E - 8th; S - 16th; T - 32nd; X - 64th; a - acciaccatura

+ - note tied to previous; . - note dotted; .. - note double dotted
Uncapitalized letters represent notes that are staccato (1/2 duration)
Irregular groupings are notated above the duration line
Duration letters will always appear directly above the note/fret number it represents the
duration for. Duration letters with no fret number below them represent rests. Multi-
bar rests are notated in the form Wxn, where n is the number of bars to rest for. Low
melody durations appear below the staff
Tablature Legend
 
 ----------------

h - hammer-on
p - pull-off
b - bend
pb - pre-bend
r - bend release (if no number after the r, then release immediately)
/\ - slide into or out of (from/to "nowhere")
s - legato slide
S - shift slide
- natural harmonic
(n) - artificial harmonic
n(n) - tapped harmonic
~ - vibrato
tr - trill
T - tap
TP - trem. picking
PM - palm muting
\n/ - tremolo bar dip; n = amount to dip
\n - tremolo bar down
n/ - tremolo bar up
/n\ - tremolo bar inverted dip
= - hold bend; also acts as connecting device for hammers/pulls
- volume swell (louder/softer)
x - on rhythm slash represents muted slash
o - on rhythm slash represents single note slash
Misc Legend
 
 -----------

| - bar
|| - double bar
||o - repeat start
o|| - repeat end
*| - double bar (ending)
: - bar (freetime)
$ - Segno
& - Coda
Tempo markers - = BPM(8/16=s8/s16), where s8 = swing 8ths, s16 = swing 16ths
***************************************************************************************
* Generated using Power Tab Editor by Brad Larsen - http://powertab.guitarnetwork.org *
***************************************************************************************

Important: The song above is NOT stored on the Chordie server. The original song is hosted at www.guitaretab.com. Chordie works as a search engine and provides on-the-fly formatting. Chordie does not index songs against artists'/composers' will. To remove this song please click here.

Text color:
Chord color:
Chord grids: 
Font size:    
Page size: 

A/C# Abmaj9 Absus2 Asus2 B7sus4 Bb6/F Bbmaj9 Bbsus2 Bm Csus2 D/C D/F# D6sus2 D7sus4 Dm7 E Eb/G Ebmaj7 Ebsus2 Em7 Fmaj9 Fsus2 G#m Gbsus2 Gmaj7 Gsus4
Rate #3 of 3 versions

Login - add to songbook

SHARE PAGE  




You need to log in to post comments