Guitar Tabs, Chords and Lyrics
Major upgrade!! After one year development the new version of Chordie is now online! Please give feedback.


Zoot Allures  Frank Zappa

 
 ----------------------------------------------------------------

FRANK ZAPPA - ZOOT ALLURES (Zappa) From ZOOT ALLURES album.
Released on 29th October 1976.
 
 ----------------------------------------------------------------

Tabbed by:PJVillanueva
The chord guitar part was recorded with a fretless "Acoustic"
guitar, surely with a very light gauge of strings. Playing it
with an acoustic jumbo or dreadnought with thicker strings may
prove too hard, although it's not impossible.
This instrumental is astonishingly beautiful. Zappa was well
acquainted with quartal harmony, which is surprising in 1976.
I guess that only some very well trained jazz musicians at the
time knew about the subject, but Zappa commanded lots of great
musicians throughout his career and that may explain anything.
[4/4]  
 
 e|------- ------- ------- -------|------- ------- ------- -------|
 B|-------------------------------|-------------------------------|
 G|-------------------------------|-------------------------------|
 D|-------------------------------|-------------------------------|
 A|-------------------------------|----------------------------0--|
 E|-------------------------------|-------------------------------|

[Amaj7-5] [Ebm11]  
 
 e|------- ----0-- ------- -------|------- ------- ------- -------|
 B|--------4-------4--------------|7-------7----------------------|
 G|----6-------------------6------|6-------6----------------------|
 D|6------------------------------|6-------6----------------------|
 A|-------------------------------|6-------6----------------------|
 E|-------------------------------|-------------------------------|
 e|------- ------- ------- -------|------- ------- ------- -------|
 B|-------------------------------|-------------------------------|
 G|-------------------------------|-------------------------------|
 D|w----w----w-----w--------------|-------------------------------|
 A|-------------------------------|----------------------------0--|
 E|-------------------------------|-------------------------------|

[Amaj7-5] [F] [G] [G] [F]  
 
 e|------- ----0-- ------- -------|5/7---- 7\5---- ------- -------|
 B|--------4-------4--------------|6/8-----8\6--------------------|
 G|----6-------------------6------|5/7-----7\5--------------------|
 D|6------------------------------|-------------------------------|
 A|-------------------------------|-------------------------------|
 E|-------------------------------|-------------------------------|
 e|------- ------- ------- -------|------- ------- ------- -------|
 B|-----5-------------------------|-------------------------------|
 G|5--7----7-------5--------------|0H5P0-----w-----w--------------|
 D|----------/-7------------------|-------------------------------|
 A|-------------------------------|-------------------------------|
 E|-------------------------------|-------------------------------|

[6/4]  
[C9/Ab]  
 
 e|------- ------- 6------ -------|------- ------- ------- -------|
 B|----------------5--------------|-------------------------------|
 G|----------------5--------------|-------------------------------|
 D|----------------5--------------|-------------------------------|
 A|----------------5--------------|-------------------------------|
 E|----------------4--------------|-------------------------------|
 e|------- ------- ------- -------|------- ------- ------- -------|
 B|-------------------------------|-------------------------------|
 G|H5P0---------------------------|-------------------------------|
 D|-------------------------------|-------------------------------|
 A|-------------------------------|-------------------------------|
 E|-------------------------------|-------------------------------|
 e|------- -------|
 B|---------------|
 G|---------------|
 D|---------------|
 A|------------0--|
 E|---------------|

[4/4]  
[Amaj7-5] [Ebm11-5]  
 
 e|------- ----0-- ------- -------|2------ 2------ ------- -------|
 B|--------4-------4--------------|2-------2---------------2-/----|
 G|----6-------------------6------|1-------1----------------------|
 D|6------------------------------|1-------1-------------------1--|
 A|-------------------------------|0-------0----------------------|
 E|-------------------------------|-------------------------------|
 e|------- ------0 ---2--0 -------|------- ------- ------- -------|
 B|-----0--2--4----4-------4--2--0|-------------------------------|
 G|1--3---------------------------|-------------------------------|
 D|-------------------------------|0------------------------------|
 A|-------------------------------|-------------------------------|
 E|-------------------------------|-------------------------------|

[E9/D]  
 
 e|------- ------- ------- -------|------- ------- 4------ -------|
 B|-------------------------------|----------------5--------------|
 G|-------------------------------|----------------4--------------|
 D|-------------------------------|----------------4--------------|
 A|-------------------------------|----------------5--------------|
 E|-------------------------------|-------------------------------|

[6/4]  
 
 e|------- -------|------- ------- ------- -------|
 B|---------------|-------------------------------|
 G|---------------|-------------------------------|
 D|---------------|-------------------------------|
 A|---------------|-------------------------------|
 E|---------------|0------------------------------|

[Bsus4/E]  
 
 e|------- -------|------- ------- 2------ -------|
 B|---------------|----------------4--------------|
 G|---------------|----------------4--------------|
 D|---------------|----------------2--------------|
 A|---------------|----------------2--------------|
 E|---------------|-------------------------------|
 e|------- -------|------- ------- ------- -------|
 B|---------------|-------------------------------|
 G|---------------|-------------------------------|
 D|---------------|-------------------------------|
 A|---------------|-------------------------------|
 E|---------------|-------------------------------|

[4/4]  
[E6/9] [Esus4]  
 
 e|------- ------- ------- -------|4------ ------- 7------ -------|
 B|-------------------------------|5---------------9--------------|
 G|-------------------------------|4---------------9--------------|
 D|-------------------------------|4---------------7--------------|
 A|-------------------------------|4---------------7--------------|
 E|-------------------------------|-------------------------------| 

[E13+5]  
 
 e11------ ------- ------- -------|------- ------- ------- -------|
 B12------------------------------|-------------------------------|
 G11------------------------------|-------------------------------|
 D11------------------------------|-------------------------------|
 A11------------------------------|-------------------------------|
 E|0------------------------------|-------------------------------|

[B13]  
 
 e|------- ------- ------- -------|7------ ------- ------- -------|
 B|-------------------------------|9------------------------------|
 G|-------------------------------|9------------------------------|
 D|-------------------------------|7------------------------------|
 A|-------------------------------|7------------------------------|
 E|-------------------------------|-------------------------------|

[Ab13]  
 
 e|4------ ------- ------- -------|------- ------- ------- -------|
 B|6------------------------------|-------------------------------|
 G|6------------------------------|-------------------------------|
 D|4----w----w-----w--------------|-------------------------------|
 A|4------------------------------|-------------------------------|
 E|-------------------------------|-------------------------------|

[E6/9] [Esus4]  
 
 e|------- ------- ------- -------|4------ ------- 7------ -------|
 B|-------------------------------|5---------------9--------------|
 G|-------------------------------|4---------------9--------------|
 D|-------------------------------|4---------------7--------------|
 A|-------------------------------|4---------------7--------------|
 E|-------------------------------|-------------------------------|

[E13+5]  
 
 e11------ ------- ------- -------|------- ------- ------- -------|
 B12------------------------------|-------------------------------|
 G11------------------------------|-------------------------------|
 D11----------w----w--------------|-------------------------------|
 A11------------------------------|-------------------------------|
 E|0------------------------------|-------------------------------|

[B13]  
 
 e|------- ------- ------- -------|7------ ------- ------- -------|
 B|-------------------------------|9------------------------------|
 G|-------------------------------|9------------------------------|
 D|-------------------------------|7------------------------------|
 A|-------------------------------|7------------------------------|
 E|-------------------------------|-------------------------------|

[Ab13]  
 
 e|4------ ------- ------- -------|------- ------- ------- -------|
 B|6------------------------------|-------------------------------|
 G|6----w----w-----w--------------|-------------------------------|
 D|4------------------------------|-------------------------------|
 A|4------------------------------|-------------------------------|
 E|-------------------------------|-------------------------------|
 e|------- ------- ------- -------|------- ------- ------- -------|
 B|-------------------------------|-------------------------------|
 G|-------------------------------|-------------------------------|
 D|-------------------------------|-------------------------------|
 A|-------------------------------|-------------------------------|
 E|-------------------------------|-------------------------------|

[Bsus4]  
 
 e|2------ ------- ------- -------|------- ------- ------- -------|
 B|4------------------------------|----------------2-------------/|
 G|4----------w----w--------------|----------------2-------------/|
 D|2------------------------------|----------------2-------------/|
 A|2------------------------------|-------------------------------|
 E|0------------------------------|-------------------------------|

X X X x
 
 e|------- ------- ------- -------|------- ------- ------- -------|
 B|9------------\--7-----/-12-----|9--\-7--/-9--\-7---------------|
 G|9--w---w---w-\--7-----/-12-----|9--\-7--/-9--\-7---------------|
 D|9------------\--7-----/-12-----|9--\-7--/-9--\-7---------------|
 A|-------------------------------|------------------------10-\---|
 E|-------------------------------|-------------------------------|

[Ab13]  
 
 e|------- ------- ------- -------|------- ------- ------- -------|
 B|--------------4/6--------------|----------------4-----/-11----\|
 G|--------------4/6--------------|w----w-----w----4-----/-11----\|
 D|-----------6--4/6--------------|----------------4-----/-11----\|
 A|-----4-------------------------|-------------------------------|
 E|2------------------------------|-------------------------------|

x x X X
 
 e|------- ------- ------- -------|------- ------- ------- -------|
 B|9---------------------/-14----\|11-----------------------------|
 G|9----w-----w-----w----/-14----\|11-----------------------------|
 D|9---------------------/-14----\|11-----------------------------|
 A|-------------------------------|----------------12--\----------|
 E|-------------------------------|-------------------------------|

[A13]  
 
 e|------- ------- ------- -------|------- ------- ------- -------|
 B|--------------5/7--------------|--------------\-5-------------/|
 G|--------------5/7--------------|w----w-----w--\-5-------w-----/|
 D|-----------7--5/7--------------|--------------\-5-------------/|
 A|-----5-------------------------|-------------------------------|
 E|3------------------------------|-------------------------------|
 e|------- ------- ------- -------|------- ------- ------- -------|
 B|7-------------/-12------------\|5-/7---------------------------|
 G|7-------------/-12------------\|5-/7------w-----w--------------|
 D|7-------------/-12------------\|5-/7---------------------------|
 A|-------------------------------|------------------------12-\---|
 E|-------------------------------|-------------------------------|

[B13]  
 
 e|------- ------- ------- -------|------- ------- ------- -------|
 B|--------------7/9--------------|----------------7-------------/|
 G|--------------7/9--------------|w----w----w-----7-------w-----/|
 D|-----------9--7/9--------------|----------------7-------------/|
 A|-----7-------------------------|-------------------------------|
 E|5------------------------------|-------------------------------| 

[E6/9] [Esus4]  
 
 e|------- ------- ------- -------|4------ ------- 7------ -------|
 B|9------------------------------|5---------------9--------------|
 G|9------------------------------|4---------------9--------------|
 D|9------------------------------|4---------------7--------------|
 A|-------------------------------|4---------------7--------------|
 E|-------------------------------|-------------------------------|

[E13+5]  
 
 e11------ ------- ------- -------|------- ------- ------- -------|
 B12------------------------------|-------------------------------|
 G11------------------------------|-------------------------------|
 D11----------w-------------------|-------------------------------|
 A11------------------------------|-------------------------------|
 E|0------------------------------|-------------------------------|

[B13]  
 
 e|------- ------- ------- -------|7------ ------- ------- -------|
 B|-------------------------------|9------------------------------|
 G|-------------------------------|9------------------------------|
 D|-------------------------------|7------------------------------|
 A|-------------------------------|7------------------------------|
 E|-------------------------------|-------------------------------|

[Ab13]  
 
 e|6------ ------- ------- -------|------- ------- ------- -------|
 B|6------------------------------|-------------------------------|
 G|6------------------------------|-------------------------------|
 D|4----w----w-----w--------------|-------------------------------|
 A|4------------------------------|-------------------------------|
 E|-------------------------------|-------------------------------|

[E6/9] [Esus4] 
 
 e|------- ------- ------- -------|4------ ------- 7------ -------|
 B|-------------------------------|5---------------9--------------|
 G|-------------------------------|4---------------9--------------|
 D|-------------------------------|4---------------7--------------|
 A|-------------------------------|4---------------7--------------|
 E|-------------------------------|-------------------------------| 

[E13+5]  
 
 e11------ ------- ------- -------|------- ------- ------- -------|
 B12------------------------------|-------------------------------|
 G11------------------------------|-------------------------------|
 D11-----------w---w--------------|-------------------------------|
 A11------------------------------|-------------------------------|
 E|0------------------------------|-------------------------------|

[B13]  
 
 e|------- ------- ------- -------|7------ ------- ------- -------|
 B|-------------------------------|9------------------------------|
 G|-------------------------------|9------------------------------|
 D|-------------------------------|7------------------------------|
 A|-------------------------------|7------------------------------|
 E|-------------------------------|-------------------------------|

[Ab13]  
 
 e|6------ ------- ------- -------|------- ------- ------- -------|
 B|6------------------------------|-------------------------------|
 G|6------------------------------|-------------------------------|
 D|4----w----w-----w--------------|-------------------------------|
 A|4------------------------------|-------------------------------|
 E|-------------------------------|-------------------------------|
 e|------- ------- ------- -------|------- ------- ------- -------|
 B|-------------------------------|-------------------------------|
 G|-------------------------------|-------------------------------|
 D|-------------------------------|-------------------------------|
 A|-------------------------------|-------------------------------|
 E|-------------------------------|--------2-----/-11-\-----------|

[Ab7+5]  
 
 e|------- ------- ------- -------|------- ------- ------- -------|
 B|---7---------------------------|-------------------------------|
 G|--8----------------------------|-------------------------------|
 D|-6-----------------------------|-------------------------------|
 A|7------------------------------|-------------------------------|
 E0-------------------------------|-------------------------------|

[Bsus4]  
 
 e|------- ------- ------- -------|------- ------- ------- -------|
 B|4--4--4---4--4--4-------4--4--4|--4--4--4-------4--------------|
 G|4--4--4---4--4--4-------4--4--4|--4--4--4-------4--------------|
 D|4--4--4---4--4--4-------4--4--4|--4--4--4-------4--------------|
 A|2--2--2---2--2--2-------2--2--2|--2--2--2-------2--------------|
 E|0--0--0---0--0--0-------0--0--0|--0--0--0-------0--------------|

x X X
 
 e|------- ------- ------- -------|------- ------- ------- -------|
 B|-------------------------------|-------------------------------|
 G|-------------------------------|-------------------------------|
 D|-------------------------------|-------------------------------|
 A|-------------------------------|-------------------------------|
 E|-------------------------------|--------2-----/-16-\-----------|
 e|------- ------- ------- -------|------- ------- ------- -------|
 B|4--4--4---4--4--4--------------|-------------------------------|
 G|4--4--4---4--4--4--------------|-------------------------------|
 D|4--4--4---4--4--4--------------|-------------------------------|
 A|2--2--2---2--2--2--------------|-------------------------------|
 E|0--0--0---0--0--0--------------|-------------------------------|

[Ab13]  
 
 e|------- ------- ------- -------|------- ------- ------- -------|
 B|--------------4/6-----------6-/|11---11---11----11-\-4----4----|
 G|--------------4/6-----------6-/|11---11---11----11-\-4----4----|
 D|-----------6--4/6-----------6-/|11---11---11----11-\-4----4----|
 A|-----4-------------------------|-------------------------------|
 E|2------------------------------|-------------------------------|
 e|------- ------- ------- -------|------- ------- ------- -------|
 B|6---6-----7-P6--7----6--6------|-------------------------------|
 G|6---6-----8-P6--8----6--6------|-------------------------------|
 D|6---6-----6-----6----6--6------|-------------------------------|
 A|-------------------------------|-------------------------------|
 E|-------------------------------|----------------2-----/-16-\---|

[A13]  
 
 e|------- ------- ------- -------|------- ------- ------- -------|
 B|--------------5/7--------------|--------------\-5--------------|
 G|--------------5/7--------------|w----w-----w--\-5-------w------|
 D|-----------7--5/7--------------|--------------\-5--------------|
 A|-----5-------------------------|-------------------------------|
 E|3------------------------------|-------------------------------|
 e|------- ------- ------- -------|------- ------- ------- -------|
 B|12-\--------5---7--------------|5-7-8---7----------------------|
 G|12-\--------5---7-----------7--|7---7---7----------------------|
 D|12-\--------5---7-----------7--|-------------------------------|
 A|-------------------------------|----------------------5/10-\---|
 E|-------------------------------|-------------------------------|

[B13]  
 
 e|------- ------- ------- -------|------- ------- ------- -------|
 B|--------------7/9--------------|--------------/-2--------------|
 G|--------------7/9--------------|w----w-----w--/-2--------------|
 D|-----------9--7/9--------------|--------------/-2--------------|
 A|-----7-------------------------|-------------------------------|
 E|5------------------------------|-------------------------------|
 e|------- ------- ------- -------|
 B|7----/--9----------------------|
 G|7----/--9----------------------|
 D|7----/--9----------------------|
 A|----------------------------0--|
 E|-------------------------------|

[Amaj7-5] [Ebm11]  
 
 e|------- ----0-- ------- -------|------- ------- ------- -------|
 B|--------4-------4--------------|7-------7----------------------|
 G|----6-------------------6------|6-------6----------------------|
 D|6------------------------------|6-------6----------------------|
 A|-------------------------------|6-------6----------------------|
 E|-------------------------------|0-------0-----------------0H2H4/
 e|------- ------- ------- -------|------- ------- ------- -------|
 B|-------------------------------|-------------------------------|
 G|-------------------------------|6---4-----2-4---1--------------|
 D|-------------------------------|-------------------------------|
 A|------------6------------------|-------------------------------|
 E|6---------------5--------------|-------------------------------|

[6/4]  
 
 e|------- -------|------- ------- ------- -------|
 B|---------------|-------------------------------|
 G|------------1H2|-------------------------------|
 D|---------------|4------------------------------|
 A|---------------|-------------------------------|
 E|---------------|-------------------------------|

[4/4]Am9 X X X X xx
 
 e|7------ ------- ------- -------|------- ------- ------- -------|
 B|5------------------------------|-------------------------------|
 G|5---------------w--------------|-------------------------------|
 D|5------------------------------|-------------------------------|
 A|0------------------------------|-------------------------------|
 E|0------------------------------|-------------------------------|

Guitar solo
PP
 
 e|6P0---- ----2-- 2------ -------|--6---- 0---2-- 4---642 --2----|
 B|-------------------------------|-------------------------------|
 G|-------------------------------|-------------------------------|
 D|-------------------------------|-------------------------------|
 A|-------------------------------|-------------------------------|
 E|-------------------------------|-------------------------------|
 e|6P0---- 0---2-2 ------- -------|------- ------- ------- -------|
 B|-------------------------------|----7---7-7-7---9-7-9B11-------|
 G|-------------------------------|-------------------------------|
 D|-------------------------------|-------------------------------|
 A|-------------------------------|-------------------------------|
 E|-------------------------------|-------------------------------|
 e|------- ------- ------- -------|------- ------- ------- -------|
 B|11R97-----7--------------------|-------------------------------|
 G|----------------6--------/--8--|8H9-P-8\6-------6--864------4--|
 D|-------------------------------|-------------------------------|
 A|-------------------------------|-------------------------------|
 E|-------------------------------|-------------------------------|
 e|------- ------- ------- -------|------- ------- ------- -------|
 B|-------------------------------|-------------------------------|
 G|4H6/8\6-------------------434--|-434-----4----3B4---3B4---4B5-R|
 D|-------------------------------|-------------------------------|
 A|-------------------------------|-------------------------------|
 E|-------------------------------|-------------------------------|
 e|------- ------- ------- -------|------- ------- ------- -------|
 B|-------------------------------|-------------------------------|
 G|4B6---------4P3-4--343---------|-------------------------6464343
 D|----------------------4-2------|-------------------------------|
 A|-------------------------------|----------4\2------------------|
 E|-------------------------------|-------------------------------|
 e|------- ------- ------- -------|------- ------- ------- -------|
 B|-------------------------------|-------------------------------|
 G|4343---------------------------|---------------------------2-4-|
 D|----4-2-------2-42-------------|-----------------------2-4-----|
 A|------------------421P2---2P1--|2P1-----------------2-4--------|
 E|-------------------------------|----2-0---0-----2-4------------|
 e|------- ------- ------- -------|-------5------6H7--6--- --6H7--|
 B|-------------------------------|-----54----545-----------------|
 G|4B6R43--4343-------------------|----4---4-4--------------------|
 D|------------4-2-4--------------|-------------------------------|
 A|-------------------------------|-------------------------------|
 E|-------------------------------|-------------------------------|

HPHPHP
 
 e|6767676 ------- ------- -------|------5 ------- ------- -------|
 B|-------7----------/------------|5-P-2---5-P-2---5-5P2P0-5P2P0-5|
 G|-------------------------------|-------------------------------|
 D|-------------------------------|-------------------------------|
 A|-------------------------------|-------------------------------|
 E|-------------------------------|-------------------------------|
 e|------- ------- 4-4P2-- -------|------- ------- ------- -------|
 B|2--2/4----4\2---------------4--|2--2/4----4\2---5-5P2P0-9--7---|
 G|-------------------------------|----------------------------6--|
 D|-------------------------------|-------------------------------|
 A|-------------------------------|-------------------------------|
 E|-------------------------------|-------------------------------|

........................Fade very slowly.......................
 
 e|------- ------- ------- -------|------- ------- ------- -------|
 B|----------7-9-/11----------11--12P11P9---9\7--7-9-7-9B11--R-9-7|
 G|6---8---9----------------------|-------------------------------|
 D|-------------------------------|-------------------------------|
 A|-------------------------------|-------------------------------|
 E|-------------------------------|-------------------------------|

...............................................................
 
 e|------- ------- ------- -------|------- --14P12 ------- ----12-|
 B|7-----7-------------------7/17-|-------------------------------|
 G|-------------------------------|-------------------------------|
 D|-------------------------------|-------------------------------|
 A|-------------------------------|-------------------------------|
 E|-------------------------------|-------------------------------|

...............................................................
 
 e|12H14-- ------- ------- -------|------- ------- ------- -------|
 B|-----14-----14--1417P14--------|12-1212P11-1111\9--9-9-\7--7-7-|
 G|-------------------------------|-------------------------------|
 D|-------------------------------|-------------------------------|
 A|-------------------------------|-------------------------------|
 E|-------------------------------|-------------------------------|

...............................................................
 
 e|----2-- --2---- -----2- -------|------- ------- ------- ---2---|
 B|5----5P2---5P2P0---------------|--------------------------2-5/7|
 G|----------------------4B5R42---42-24B6R4B6---------R42-4/6-----|
 D|-------------------------------|-4-----------------------------|
 A|-------------------------------|-------------------------------|
 E|-------------------------------|-------------------------------|

...............................................................
 
 e|------- ------- ------- -------|------- ------- 0--2--0 -------|
 B|7--7\5----5-5H7-4---4-\-2------|-----------2--4---------4--2--0|
 G|-------------------------------|-------------------------------|
 D|-------------------------------|-------------------------------|
 A|-------------------------------|-------------------------------|
 E|-------------------------------|-------------------------------|

...............................................................
 
 e|------- ------- ------- -------|------- ------- ------- -------|
 B|2------------------------------|-------------------------------|
 G|--2B3--------------------------|-------------------------------|
 D|--------4P3P2-----4------------|-------------------------------|
 A|--------------4----------------|-------------------------------|
 E|-------------------------------|-------------------------------|

......................
B Bend
R Release
/ Slide up
\ Slide down
H Hammer-on
P Pull-off
~ Vibrato
+ Harmonic
x Mute note
. Play note like a dot in standard notation
^ Ties two notes together
(. Pause
w Vibrato soft dives (Whammy?)

Important: The song above is NOT stored on the Chordie server. The original song is hosted at www.guitaretab.com. Chordie works as a search engine and provides on-the-fly formatting. Chordie does not index songs against artists'/composers' will. To remove this song please click here.

Text color:
Chord color:
Chord grids: 
Font size:    
Page size: 

A13 Ab13 Ab7+5 Amaj7-5 B13 Bsus4 Bsus4/E E6/9 Ebm11 Esus4 F G
Rate #1 of 2 versions

Jango Player

Login - add to songbook

SHARE PAGE  



You need to log in to post comments