Guitar Tabs, Chords and Lyrics
Major upgrade!! After one year development the new version of Chordie is now online! Please give feedback.


Wishing Well  Free

 
 -------------------------------------------------------------------------------

WISHING WELL ? Free
(Rodgers, Kirke, Yamauchi, Kossoff & Bundrick)
(Heartbreaker (1972))
 
 -------------------------------------------------------------------------------

Tabbed by: varannion
Email: dm_hughes1@hotmail.com
Tuning: standard
Intro
[Em] [Asus4] [Asus4] [Em]  
 
 e|----------------------------|--------------------------|
 B|----------------------------|--------------------------|
 G|----------------------------|--------------------------|
 D|----------------------------|--------------------------|
 A|----5h7--5------------------|--0h2--0------------------|
 E|-----------5h7--5--(5)------|---------3--0--(0)--------|

| ~~~~
 
 e|----------------------------|--------------------------|
 B|--------------10----(10)----|-(10)---------15b17-(17)--|
 G|--------------12b14-(14)----|-(14)-12-(9)/-------------|
 D|----------------------------|--------------------------|
 A|----------------------------|--------------------------|
 E|----------------------------|--------------------------|

[Em] [Asus4] [G5]  
 
 e|----------------------------|--3-----------------------|
 B|----------------------------|--3-----------------------|
 G|----------------------------|--0-----------------------|
 D|----------------------------|--0-----------------------|
 A|----5h7--5------------------|--x-----------------------|
 E|-----------5h7--5--(5)------|--3-----------------------|

| ~~~ ~~~~~~ bss
 
 e|----------------------------|--------------------------|
 B|----(17)r15-----------------|--15b16r15\---------------|
 G|-------------12b14--(14)----|--------------------------|
 D|----------------------------|--------------------------|
 A|----------------------------|--------------------------|
 E|----------------------------|--------------------------|

[E5]  
 
 e|----(3)----------------------------|--0-----------------------|
 B|----(3)----------------------------|--0-----------------------|
 G|----(0)----------------------------|--4-----------------------|
 D|----(0)----------------------------|--2-----------------------|
 A|-----------------------------------|--2-----------------------|
 E|----(3)----------------------------|--0-----------------------|

| pb pb rpb rpb
 
 e|----13/15--------------------------|--------------------------|
 B|----------(18)20r18-(18)20-20r18\--|--------------------------|
 G|-----------------------------------|--------------------------|
 D|-----------------------------------|--------------------------|
 A|-----------------------------------|--------------------------|
 E|-----------------------------------|--------------------------|

Verse 1
co co co co
[E5]  
 
 e|----(0)---------------------|--------------------------|
 B|----(0)---------------------|--------------------------|
 G|----(4)---------------------|--9-----9-----9-----9-----|
 D|----(2)---------------------|--9-----9-----9-----9-----|
 A|----(2)---------------------|--7-----7-----7-----7-----|
 E|----(0)---------------------|--0-----0-----0-----0-----|

|
 
 e|----------------------------|--------------------------|
 B|----------------------------|--------------------------|
 G|----------------------------|--------------------------|
 D|----------------------------|--------------------------|
 A|----------------------------|--------------------------|
 E|----------------------------|--------------------------|

co co co co
[C5] [D5]  
 
 e|----------------------------|--------------------------|
 B|----------------------------|--------------------------|
 G|----9----9----9----9--------|--5-----------7-----------|
 D|----9----9----9----9--------|--5-----------7-----------|
 A|----7----7----7----7--------|--3-----------5-----------|
 E|----0----0----0----0--------|--------------------------|

|
 
 e|----------------------------|--------------------------|
 B|----------------------------|--------------------------|
 G|----------------------------|--------------------------|
 D|----------------------------|--------------------------|
 A|----------------------------|--------------------------|
 E|----------------------------|--------------------------|

co co co co co co co co
[E5]  
 
 e|----------------------------|--------------------------|
 B|----------------------------|--------------------------|
 G|----9-----9-----9-----9-----|--9-----9-----9-----9-----|
 D|----9-----9-----9-----9-----|--9-----9-----9-----9-----|
 A|----7-----7-----7-----7-----|--7-----7-----7-----7-----|
 E|----0-----0-----0-----0-----|--0-----0-----0-----0-----|

|
 
 e|----------------------------|--------------------------|
 B|----------------------------|--------------------------|
 G|----------------------------|--------------------------|
 D|----------------------------|--------------------------|
 A|----------------------------|--------------------------|
 E|----------------------------|--------------------------|

co co co co
[C5] [D5]  
 
 e|----------------------------|--------------------------|
 B|----------------------------|--------------------------|
 G|----9-----9-----9-----9-----|--5-----------7-----------|
 D|----9-----9-----9-----9-----|--5-----------7-----------|
 A|----7-----7-----7-----7-----|--3-----------5-----------|
 E|----0-----0-----0-----0-----|--------------------------|

|
 
 e|----------------------------|--------------------------|
 B|----------------------------|--------------------------|
 G|----------------------------|--------------------------|
 D|----------------------------|--------------------------|
 A|----------------------------|--------------------------|
 E|----------------------------|--------------------------|

co co co co
[E5] [C5] [D5]  
 
 e|----------------------------|--------------------------|
 B|----------------------------|--------------------------|
 G|----9-----9-----9-----9-----|--5-----------7-----------|
 D|----9-----9-----9-----9-----|--5-----------7-----------|
 A|----7-----7-----7-----7-----|--3-----------5-----------|
 E|----0-----0-----0-----0-----|--------------------------|

|
 
 e|----------------------------|--------------------------|
 B|----------------------------|--------------------------|
 G|----------------------------|--------------------------|
 D|----------------------------|--------------------------|
 A|----------------------------|--------------------------|
 E|----------------------------|--------------------------|

co co co co
[E5] [C5] [D5]  
 
 e|----------------------------|--------------------------|
 B|----------------------------|--------------------------|
 G|----9-----9-----9-----9-----|--5-----------7-----------|
 D|----9-----9-----9-----9-----|--5-----------7-----------|
 A|----7-----7-----7-----7-----|--3-----------5-----------|
 E|----------------------------|--------------------------|

|
 
 e|----------------------------|--------------------------|
 B|----------------------------|--------------------------|
 G|----------------------------|--------------------------|
 D|----------------------------|--------------------------|
 A|----------------------------|--------------------------|
 E|----------------------------|--------------------------|

[E5] [C5] [C5]  
 
 e|----------------------------|--------------------------|
 B|----------------------------|--------------------------|
 G|----9---------------(9)\----|--5-----------7-----------|
 D|----9---------------(9)\----|--5-----------7-----------|
 A|----7---------------(7)\----|--3-----------5-----------|
 E|----------------------------|--------------------------|

|
 
 e|----------------------------|--------------------------|
 B|--------7h8----8h10p8-------|--------------------------|
 G|----7-9-----9----------9-7--|--------------------------|
 D|----------------------------|--------------------------|
 A|----------------------------|--------------------------|
 E|----------------------------|--------------------------|

rake
[E5] [C5] [D5]  
 
 e|----------------------------|--------------------------|
 B|----------------------------|--------------------------|
 G|----9-----------------------|--5-----------7-----------|
 D|----9-----------------------|--5-----------7-----------|
 A|----7-----------------------|--3-----------5-----------|
 E|----------------------------|--------------------------|

|
 
 e|----------------------------|--------------------------|
 B|----------------------------|--------------------------|
 G|----------------------------|--------------------------|
 D|----------------------------|--------------------------|
 A|----------------------------|--------------------------|
 E|----------------------------|--------------------------|

[Em] [Asus4] [Asus4] [Em]  
 
 e|----------------------------|--------------------------|
 B|----------------------------|--------------------------|
 G|----------------------------|--------------------------|
 D|----0h2--0------------------|--------------------------|
 A|-----------0h2--0--(0)------|--0h2--0------------------|
 E|----------------------------|---------3--0--(0)--------|

|
 
 e|----------------------------|--------------------------|
 B|----------------------------|--------------------------|
 G|----------------------------|--------------------------|
 D|----------------------------|--------------------------|
 A|----------------------------|--------------------------|
 E|----------------------------|--------------------------|

[Em] [Asus4] [G5]  
 
 e|----------------------------|--3-----------------------|
 B|----------------------------|--3-----------------------|
 G|----------------------------|--0-----------------------|
 D|----0h2--0------------------|--0-----------------------|
 A|-----------0h2--0--(0)------|--x-----------------------|
 E|----------------------------|--3-----------------------|

| rpb
 
 e|----------------------------|--------------------------|
 B|-------------15b17-(17)r15--|-(15)b17r15---------------|
 G|---/12----------------------|------------12-14-12------|
 D|----------------------------|--------------------------|
 A|----------------------------|--------------------------|
 E|----------------------------|--------------------------|

[E5]  
 
 e|----(3)---------------------|--0-----------------------|
 B|----(3)---------------------|--0-----------------------|
 G|----(0)---------------------|--4-----------------------|
 D|----(0)---------------------|--2-----------------------|
 A|----------------------------|--2-----------------------|
 E|----(3)---------------------|--0-----------------------|

|
 
 e|----------------------------|--------------------------|
 B|----------------------------|--------------------------|
 G|----------------------------|--------------------------|
 D|----------------------------|--------------------------|
 A|----------------------------|--------------------------|
 E|----------------------------|--------------------------|

Verse 2
co co co co
[E5]  
 
 e|----(0)---------------------|--------------------------|
 B|----(0)---------------------|--------------------------|
 G|----(4)---------------------|--9-----9-----9-----9-----|
 D|----(2)---------------------|--9-----9-----9-----9-----|
 A|----(2)---------------------|--7-----7-----7-----7-----|
 E|----(0)---------------------|--0-----0-----0-----0-----|

|
 
 e|----------------------------|--------------------------|
 B|----------------------------|--------------------------|
 G|----------------------------|--------------------------|
 D|----------------------------|--------------------------|
 A|----------------------------|--------------------------|
 E|----------------------------|--------------------------|

co co co co
[C5] [D5]  
 
 e|----------------------------|--------------------------|
 B|----------------------------|--------------------------|
 G|----9-----9-----9-----9-----|--5-----------7-----------|
 D|----9-----9-----9-----9-----|--5-----------7-----------|
 A|----7-----7-----7-----7-----|--3-----------5-----------|
 E|----0-----0-----0-----0-----|--------------------------|

|
 
 e|----------------------------|--------------------------|
 B|----------------------------|--------------------------|
 G|----------------------------|--------------------------|
 D|----------------------------|--------------------------|
 A|----------------------------|--------------------------|
 E|----------------------------|--------------------------|

co co co co co co co co
[E5]  
 
 e|----------------------------|--------------------------|
 B|----------------------------|--------------------------|
 G|----9-----9-----9-----9-----|--9-----9-----9-----9-----|
 D|----9-----9-----9-----9-----|--9-----9-----9-----9-----|
 A|----7-----7-----7-----7-----|--7-----7-----7-----7-----|
 E|----0-----0-----0-----0-----|--0-----0-----0-----0-----|

|
 
 e|----------------------------|--------------------------|
 B|----------------------------|--------------------------|
 G|----------------------------|--------------------------|
 D|----------------------------|--------------------------|
 A|----------------------------|--------------------------|
 E|----------------------------|--------------------------|

co co co co
[C5] [D5]  
 
 e|----------------------------|--------------------------|
 B|----------------------------|--------------------------|
 G|----9-----9-----9-----9-----|--5-----------7-----------|
 D|----9-----9-----9-----9-----|--5-----------7-----------|
 A|----7-----7-----7-----7-----|--3-----------5-----------|
 E|----0-----0-----0-----0-----|--------------------------|

|
 
 e|----------------------------|--------------------------|
 B|----------------------------|--------------------------|
 G|----------------------------|--------------------------|
 D|----------------------------|--------------------------|
 A|----------------------------|--------------------------|
 E|----------------------------|--------------------------|

co co co co
[E5] [C5] [D5]  
 
 e|----------------------------|--------------------------|
 B|----------------------------|--------------------------|
 G|----9-----9-----9-----9-----|--5-----------7-----------|
 D|----9-----9-----9-----9-----|--5-----------7-----------|
 A|----7-----7-----7-----7-----|--3-----------5-----------|
 E|----0-----0-----0-----0-----|--------------------------|

|
 
 e|----------------------------|--------------------------|
 B|----------------------------|--------------------------|
 G|----------------------------|--------------------------|
 D|----------------------------|--------------------------|
 A|----------------------------|--------------------------|
 E|----------------------------|--------------------------|

co co co co
[E5] [C5] [D5]  
 
 e|----------------------------|--------------------------|
 B|----------------------------|--------------------------|
 G|----9-----9-----9-----9-----|--5-----------7-----------|
 D|----9-----9-----9-----9-----|--5-----------7-----------|
 A|----7-----7-----7-----7-----|--3-----------5-----------|
 E|----------------------------|--------------------------|

|
 
 e|----------------------------|--------------------------|
 B|----------------------------|--------------------------|
 G|----------------------------|--------------------------|
 D|----------------------------|--------------------------|
 A|----------------------------|--------------------------|
 E|----------------------------|--------------------------|

[E5] [C5] [C5]  
 
 e|----------------------------|--------------------------|
 B|----------------------------|--------------------------|
 G|----9---------------(9)\----|--5-----------7-----------|
 D|----9---------------(9)\----|--5-----------7-----------|
 A|----7---------------(7)\----|--3-----------5-----------|
 E|----------------------------|--------------------------|

|
 
 e|----------------------------|--------------------------|
 B|--------7h8----8h10p8-------|--------------------------|
 G|----7-9-----9----------9-7--|--------------------------|
 D|----------------------------|--------------------------|
 A|----------------------------|--------------------------|
 E|----------------------------|--------------------------|

co co co co rake
[E5] [C5] [D5]  
 
 e|----------------------------|--------------------------|
 B|----------------------------|--------------------------|
 G|----9-----9-----9-----9-----|--5-----------7-----------|
 D|----9-----9-----9-----9-----|--5-----------7-----------|
 A|----7-----7-----7-----7-----|--3-----------5-----------|
 E|----------------------------|--------------------------|

|
 
 e|----------------------------|--------------------------|
 B|----------------------------|--------------------------|
 G|----------------------------|--------------------------|
 D|----------------------------|--------------------------|
 A|----------------------------|--------------------------|
 E|----------------------------|--------------------------|

[Em] [Asus4] [Asus4] [Em]  
 
 e|----------------------------|--------------------------|
 B|----------------------------|--------------------------|
 G|----------------------------|--------------------------|
 D|----0h2--0------------------|--------------------------|
 A|-----------0h2--0--(0)------|--0h2--0------------------|
 E|----------------------------|---------3--0--(0)--------|

|
 
 e|----------------------------|--------------------------|
 B|----------------------------|--------------------------|
 G|----------------------------|--------------------------|
 D|---12h14-12----12-(12)------|--------------------------|
 A|------------14--------------|--------------------------|
 E|----------------------------|--------------------------|

[Em] [Asus4] [A5(m)]  
 
 e|----------------------------|--------------------------|
 B|----------------------------|--------------------------|
 G|----------------------------|--2-----------------------|
 D|----0h2--0------------------|--2-----------------------|
 A|-----------0h2--0--(0)------|--0-----------------------|
 E|----------------------------|--------------------------|

|
 
 e|----------------------------|--------------------------|
 B|----------------------8b10--|--8b10r8\-----------------|
 G|----/12---------------------|--------------------------|
 D|----------------------------|--------------------------|
 A|----------------------------|--------------------------|
 E|----------------------------|--------------------------|

Bridge
[F] [G]  
 
 e|----------------------------|--------------------------|
 B|----------------------------|--------------------------|
 G|----(2)---------------------|--------------------------|
 D|----(2)---------------------|--3-----------5-----------|
 A|----(0)---------------------|--3-----------5-----------|
 E|----------------------------|--1-----------3-----------|

|
 
 e|----------------------------|--------------------------|
 B|----------------------------|--------------------------|
 G|----------------------------|--------------------------|
 D|----------------------------|--------------------------|
 A|----------------------------|--------------------------|
 E|----------------------------|--------------------------|

[A5(m)] [F] [G]  
 
 e|----------------------------|--------------------------|
 B|----------------------------|--------------------------|
 G|----------------------------|--------------------------|
 D|----7-----------------------|--3-----------5-----------|
 A|----7-----------------------|--3-----------5-----------|
 E|----5-----------------------|--1-----------3-----------|

|
 
 e|----------------------------|--------------------------|
 B|----------------------------|--------------------------|
 G|----------------------------|--------------------------|
 D|----------------------------|--------------------------|
 A|----------------------------|--------------------------|
 E|----------------------------|--------------------------|

[A5(m)] [F] [G]  
 
 e|----------------------------|--------------------------|
 B|----------------------------|--------------------------|
 G|----------------------------|--------------------------|
 D|----7-----------------------|--3-----------5-----------|
 A|----7-----------------------|--3-----------5-----------|
 E|----5-----------------------|--1-----------3-----------|

|
 
 e|----------------------------|--------------------------|
 B|----------------------------|--------------------------|
 G|----------------------------|--------------------------|
 D|----------------------------|--------------------------|
 A|----------------------------|--------------------------|
 E|----------------------------|--------------------------|

[A5(m)] [F] [G]  
 
 e|----------------------------|--------------------------|
 B|----------------------------|--------------------------|
 G|----------------------------|--------------------------|
 D|----7-----------------------|--3-----------5-----------|
 A|----7-----------------------|--3-----------5-----------|
 E|----5-----------------------|--1-----------3-----------|

|
 
 e|----------------------------|--------------------------|
 B|----------------------------|--------------------------|
 G|----------------------------|--------------------------|
 D|----------------------------|--------------------------|
 A|----------------------------|--------------------------|
 E|----------------------------|--------------------------|

Pre-solo
[A5(m)] [F] [G]  
 
 e|----------------------------|--------------------------|
 B|----------------------------|--------------------------|
 G|----------------------------|--10----------12----------|
 D|----7-----------------------|--10----------12----------|
 A|----7-----------------------|--8-----------10----------|
 E|----5-----------------------|--------------------------|

|
 
 e|----------------------------|--------------------------|
 B|----------------------------|--1-----------3-----------|
 G|----------------------------|--3b5---------5b7---------|
 D|----------------------------|--------------------------|
 A|----------------------------|--------------------------|
 E|----------------------------|--------------------------|

[A5(m)] [F] [G]  
 
 e|----------------------------|--------------------------|
 B|----------------------------|--------------------------|
 G|----2-----------------------|--10----------12----------|
 D|----2-----------------------|--10----------12----------|
 A|----0-----------------------|--8-----------10----------|
 E|----------------------------|--------------------------|

|
 
 e|----------------------------|--------------------------|
 B|----5---------------(5)\----|--1-----------3-----------|
 G|----7b9---------------------|--3b5---------5b7---------|
 D|----------------------------|--------------------------|
 A|----------------------------|--------------------------|
 E|----------------------------|--------------------------|

[A5(m)] [F] [G]  
 
 e|----------------------------|--------------------------|
 B|----------------------------|--------------------------|
 G|----2-----------------------|--10----------12----------|
 D|----2-----------------------|--10----------12----------|
 A|----0-----------------------|--8-----------10----------|
 E|----------------------------|--------------------------|

|
 
 e|----------------------------|--------------------------|
 B|----5---------------(5)\----|--------------------------|
 G|----7b9---------------------|--4/5---\4---2---/4h5p4---|
 D|----------------------------|--------------------------|
 A|----------------------------|--------------------------|
 E|----------------------------|--------------------------|

[A5(m)] [F] [G]  
 
 e|----------------------------|--------------------------|
 B|----------------------------|--------------------------|
 G|----2-----------------------|--10----------12----------|
 D|----2-----------------------|--10----------12----------|
 A|----0-----------------------|--8-----------10----------|
 E|----------------------------|--------------------------|

| ~~~~~ hold bend
 
 e|----------------------------|-----------------------5--|
 B|----------------------------|--------------------5-----|
 G|----4\2------(2)p0--2--(2)--|--3b5----------7b9--------|
 D|----------------------------|--------------------------|
 A|----------------------------|--------------------------|
 E|----------------------------|--------------------------|

Solo
[A5(m)] [C5]  
 
 e|----------------------------|--------------------------|
 B|----------------------------|--------------------------|
 G|----2-----------------------|--5-------5----5------5---|
 D|----2-----------------------|--5-------5----5------5---|
 A|----0-----------------------|--3-------3----3------3---|
 E|----------------------------|--------------------------|

| rpb
 
 e|---(5)----------------------|--------------------------|
 B|----------------------------|--------------------------|
 G|------(9)r7p5---------------|--------------------------|
 D|--------------7--(7)--------|-----------------------7--|
 A|----------------------------|--------------------------|
 E|----------------------------|--------------------------|

[D]  
 
 e|----------------------------|--------------------------|
 B|----------------------------|--------------------------|
 G|---(5)---5---5----5----5----|--7-------7----7------7---|
 D|---(5)---5---5----5----5----|--7-------7----7------7---|
 A|---(3)---3---3----3----3----|--5-------5----5------5---|
 E|----------------------------|--------------------------|

| hold bend rpb ~~~~~
 
 e|----------------------------|--------------------------|
 B|-------------------------5--|--------------------------|
 G|----5-5--7p5---5-7b9-(9)----|-(9)r7-5-7--7-----/-------|
 D|-------------7--------------|--------------------------|
 A|----------------------------|--------------------------|
 E|----------------------------|--------------------------|

[F7] [G]  
 
 e|----------------------------|---------------------------|
 B|----------------------------|-----------------------12--|
 G|----7-------7----7------7---|--8--8--5--5--8--8-----12--|
 D|----7-------7----7------7---|--7--7--7--7--7--7-----12--|
 A|----5-------5----5------5---|--8-------(8)-------8--10--|
 E|----------------------------|---------------------------|

| pb pb
 
 e|----------------------------|-(15)17-15-12--------------|
 B|----------------------------|--------------15-(15)17r15-|
 G|----x--17\---5--7-7--/------|---------------------------|
 D|----------------------------|---------------------------|
 A|----------------------------|---------------------------|
 E|----------------------------|---------------------------|

[A5]  
 
 e|----------------------------|--------------------------|
 B|---(12)-----12-----(12)-----|--------------------------|
 G|---(12)-----12-----(12)-----|--2-------2-------2-------|
 D|---(12)-----12-----(12)-----|--2-------2-------2-------|
 A|---(10)-----10-----(12)-----|--0-------0-------0-------|
 E|----------------------------|--------------------------|

| co rpb ~~~~ rpb rpb
 
 e|------------------12--15b17-|-(17)-----(17)r15b17-(17)-|
 B|---(15)-13-15b17------------|--------------------------|
 G|----------------------------|--------------------------|
 D|----------------------------|--------------------------|
 A|----------------------------|--------------------------|
 E|----------------------------|--------------------------|

Verse 3
[F5] [G5]  
 
 e|----------------------------|--------------------------|
 B|----------------------------|--------------------------|
 G|---(2)----------------------|--------------------------|
 D|---(2)----------------------|--3-----------5-----------|
 A|---(0)----------------------|--3-----------5-----------|
 E|----------------------------|--1-----------3-----------|

| rpb rpb rpb rpb
 
 e|---(17)(17)(17)(17)r15-(15)-|--------------------------|
 B|----------------------------|--------------------------|
 G|----------------------------|--------------------------|
 D|----------------------------|--------------------------|
 A|----------------------------|--------------------------|
 E|----------------------------|--------------------------|

[A5(m)] [F5] [G5]  
 
 e|----------------------------|--------------------------|
 B|----------------------------|--------------------------|
 G|----------------------------|--------------------------|
 D|----7-------------(7)\------|--3-----------5-----------|
 A|----7-------------(7)\------|--3-----------5-----------|
 E|----5-------------(5)\------|--1-----------3-----------|

|
 
 e|----------------------------|--------------------------|
 B|----------------------------|--------------------------|
 G|----------------------------|--------------------------|
 D|----------------------------|--------------------------|
 A|----------------------------|--------------------------|
 E|----------------------------|--------------------------|

[A5(m)] [F5] [G5]  
 
 e|----------------------------|--------------------------|
 B|----------------------------|--------------------------|
 G|----------------------------|--------------------------|
 D|----7------------(7)\-------|--3-----------5-----------|
 A|----7------------(7)\-------|--3-----------5-----------|
 E|----5------------(5)\-------|--1-----------3-----------|

|
 
 e|----------------------------|--------------------------|
 B|----------------------------|--------------------------|
 G|----------------------------|--------------------------|
 D|----------------------------|--------------------------|
 A|----------------------------|--------------------------|
 E|----------------------------|--------------------------|

co co co
[A5(m)] [F5] [G5]  
 
 e|----------------------------|--------------------------|
 B|----------------------------|--------------------------|
 G|----------------------------|--10----------12----------|
 D|----7--------7--------7\----|--10----------12----------|
 A|----7--------7--------7\----|--8-----------10----------|
 E|----5--------5--------5\----|--------------------------|

|
 
 e|----------------------------|--------------------------|
 B|----------------------------|--------------------------|
 G|----------------------------|--------------------------|
 D|----------------------------|--------------------------|
 A|----------------------------|--------------------------|
 E|----------------------------|--------------------------|

Outro
[bss] 
[Am] [Dsus4] [Dsus4] [Am]  
 
 e|----------------------------|--------------------------|
 B|----------------------------|--------------------------|
 G|----------------------------|--------------------------|
 D|----5h7--5------------------|--0h2--0------------------|
 A|-----------5h7--5--(5)------|----------3--0--(0)-------|
 E|----------------------------|--------------------------|

|
 
 e|----------------------------|--------------------------|
 B|----------------------------|--------------------------|
 G|----------------------------|--------------------------|
 D|----------------------------|--------------------------|
 A|----------------------------|--------------------------|
 E|----------------------------|--------------------------|

[bss] 
[Am] [Dsus4] [Dsus4] [Am]  
 
 e|----------------------------|--------------------------|
 B|----------------------------|--------------------------|
 G|----------------------------|--------------------------|
 D|----5h7--5------------------|--0h2--0------------------|
 A|-----------5h7--5--(5)------|----------3--0--(0)-------|
 E|----------------------------|--------------------------|

|
 
 e|----------------------------|--------------------------|
 B|----------------------------|--------------------------|
 G|----------------------------|--------------------------|
 D|----------------------------|--------------------------|
 A|----------------------------|--------------------------|
 E|----------------------------|--------------------------|

[bss] 
[Am] [Dsus4] [Dsus4] [Am]  
 
 e|----------------------------|--------------------------|
 B|----------------------------|--------------------------|
 G|----------------------------|--------------------------|
 D|----5h7--5------------------|--0h2--0------------------|
 A|-----------5h7--5--(5)------|----------3--0--(0)-------|
 E|----------------------------|--------------------------|

|
 
 e|----------------------------|--------------------------|
 B|----------------------------|--------------------------|
 G|----------------------------|--------------------------|
 D|----------------------------|--------------------------|
 A|----------------------------|--------------------------|
 E|----------------------------|--------------------------|

[bss] 
[Am] [Dsus4] [Dsus4] [Am]  
 
 e|----------------------------|--------------------------|
 B|----------------------------|--------------------------|
 G|----------------------------|--------------------------|
 D|----5h7--5------------------|--0h2--0------------------|
 A|-----------5h7--5--(5)------|----------3--0--(0)-------|
 E|----------------------------|--------------------------|

|
 
 e|----------------------------|--------------------------|
 B|----------------------------|--------------------------|
 G|----------------------------|--------------------------|
 D|----------------------------|--------------------------|
 A|----------------------------|--------------------------|
 E|----------------------------|--------------------------|

[bss] 
[Am] [Dsus4] [Dsus4] [Am]  
 
 e|----------------------------|--------------------------|
 B|----------------------------|--------------------------|
 G|----------------------------|--------------------------|
 D|----5h7--5------------------|--0h2--0------------------|
 A|-----------5h7--5--(5)------|----------3--0--(0)-------|
 E|----------------------------|--------------------------|

|
 
 e|----------------------------|--------------------------|
 B|----------------------------|--------------------------|
 G|----------------------------|--------------------------|
 D|----------------------------|--------------------------|
 A|----------------------------|--------------------------|
 E|----------------------------|--------------------------|

[bss] 
[Am] [Dsus4] [Dsus4] [Am]  
 
 e|----------------------------|--------------------------|
 B|----------------------------|--------------------------|
 G|----------------------------|--------------------------|
 D|----5h7--5------------------|--0h2--0------------------|
 A|-----------5h7--5--(5)------|----------3--0--(0)-------|
 E|----------------------------|--------------------------|

|
 
 e|----------------------------|--------------------------|
 B|----------------------------|--------------------------|
 G|----------------------------|--------------------------|
 D|----------------------------|--------------------------|
 A|----------------------------|--------------------------|
 E|----------------------------|--------------------------|

[bss] 
[Am] [Dsus4] [Dsus4] [Am]  
 
 e|----------------------------|--------------------------|
 B|----------------------------|--------------------------|
 G|----------------------------|--------------------------|
 D|----5h7--5------------------|--0h2--0------------------|
 A|-----------5h7--5--(5)------|----------3--0--(0)-------|
 E|----------------------------|--------------------------|

|
 
 e|----------------------------|--------------------------|
 B|----------------------------|--------------------------|
 G|----------------------------|--------------------------|
 D|----------------------------|--------------------------|
 A|----------------------------|--------------------------|
 E|----------------------------|--------------------------|

[bss] 
[Am] [Dsus4] [Dsus4] [Am]  
 
 e|----------------------------|--------------------------|
 B|----------------------------|--------------------------|
 G|----------------------------|--------------------------|
 D|----5h7--5------------------|--0h2--0------------------|
 A|-----------5h7--5--(5)------|----------3--0--(0)-------|
 E|----------------------------|--------------------------|

|
 
 e|----------------------------|-------------------15b17--|
 B|----------------------------|--------------------------|
 G|----------------------------|--------------------------|
 D|----------------------------|--------------------------|
 A|----------------------------|--------------------------|
 E|----------------------------|--------------------------|

Outro solo
[bss] 
[Am] [Dsus4] [Dsus4] [Am]  
 
 e|----------------------------|--------------------------|
 B|----------------------------|--------------------------|
 G|----------------------------|--------------------------|
 D|----5h7--5------------------|--0h2--0------------------|
 A|-----------5h7--5--(5)------|----------3--0--(0)-------|
 E|----------------------------|--------------------------|

| ~~~~~~~
 
 e|----15b7-15b17-15b17--------|--15b17--15-15b17r15-12---|
 B|----------------------------|--------------------------|
 G|----------------------------|--------------------------|
 D|----------------------------|--------------------------|
 A|----------------------------|--------------------------|
 E|----------------------------|--------------------------|

[bss] 
[Am] [Dsus4] [Dsus4] [Am]  
 
 e|----------------------------|---------------------------|
 B|----------------------------|---------------------------|
 G|----------------------------|---------------------------|
 D|----5h7--5------------------|--0h2--0-------------------|
 A|-----------5h7--5--(5)------|----------3--0--(0)--------|
 E|----------------------------|---------------------------|

| ~~~~~~
 
 e|----15b17r15-15b17r15-15-15-|-15b17-15b17------15b17r15-|
 B|----------------------------|---------------------------|
 G|----------------------------|---------------------------|
 D|----------------------------|---------------------------|
 A|----------------------------|---------------------------|
 E|----------------------------|---------------------------|

[bss] 
[Am] [Dsus4] [Dsus4] [Am]  
 
 e|----------------------------|--------------------------|
 B|----------------------------|--------------------------|
 G|----------------------------|--------------------------|
 D|----5h7--5------------------|--0h2--0------------------|
 A|-----------5h7--5--(5)------|----------3--0--(0)-------|
 E|----------------------------|--------------------------|

| ~~~~~
 
 e|----15b17-15-15b17-----r15--|----15-15-15--(15)\5--5/--|
 B|----------------------------|--------------------------|
 G|----------------------------|--------------------------|
 D|----------------------------|--------------------------|
 A|----------------------------|--------------------------|
 E|----------------------------|--------------------------|

[bss] 
[Am] [Dsus4] [Dsus4] [Am]  
 
 e|----------------------------|--------------------------|
 B|----------------------------|--------------------------|
 G|----------------------------|--------------------------|
 D|----5h7--5------------------|--0h2--0------------------|
 A|-----------5h7--5--(5)------|----------3--0--(0)-------|
 E|----------------------------|--------------------------|

|
 
 e|-------------12-------------|--------------------------|
 B|-------------13--15p13------|----13b15---13-13b14------|
 G|------------------------14--|---------------------14\--|
 D|----------------------------|--------------------------|
 A|----------------------------|--------------------------|
 E|----------------------------|--------------------------|

[bss] 
[Am] [Dsus4] [Dsus4] [Am]  
 
 e|----------------------------|--------------------------|
 B|----------------------------|--------------------------|
 G|----------------------------|--------------------------|
 D|----5h7--5------------------|--0h2--0------------------|
 A|-----------5h7--5--(5)------|----------3--0--(0)-------|
 E|----------------------------|--------------------------|

|
 
 e|----------------------------|--------------------------|
 B|----------------------------|--------------------------|
 G|----------------------------|--------------------------|
 D|----------------------------|--------------------------|
 A|----------------------------|--------------------------|
 E|----------------------------|--------------------------|

[bss] 
[Am] [Dsus4] [Dsus4] [Am]  
 
 e|----------------------------|--------------------------|
 B|----------------------------|--------------------------|
 G|----------------------------|--------------------------|
 D|----5h7--5------------------|--0h2--0------------------|
 A|-----------5h7--5--(5)------|----------3--0--(0)-------|
 E|----------------------------|--------------------------|

|
 
 e|----------------------------|--------------------------|
 B|----------------------------|--------------------------|
 G|----------------------------|--------------------------|
 D|----------------------------|--------------------------|
 A|----------------------------|--------------------------|
 E|----------------------------|--------------------------|

[bss] 
[Am] [Dsus4] [Dsus4] [Am]  
 
 e|----------------------------|--------------------------|
 B|----------------------------|--------------------------|
 G|----------------------------|--------------------------|
 D|----5h7--5------------------|--0h2--0------------------|
 A|-----------5h7--5--(5)------|----------3--0--(0)-------|
 E|----------------------------|--------------------------|

|
 
 e|----------------------------|--------------------------|
 B|----------------------------|--------------------------|
 G|----------------------------|--------------------------|
 D|----------------------------|--------------------------|
 A|----------------------------|--------------------------|
 E|----------------------------|--------------------------|

Intro
| Em Asus4 | Asus4 Em | Em Asus4 |
| G5 | G5 | E5 |
| E5 |
Verse 1
[Em]Take off your hat
[Em]Kick off your shoes
I [C]know you ain?t [D]goin? anywhere[Em]
[Em]Run ?round the town
[Em]Singin? your blues
I [C]know you ain?t [D]goin? anywhere[Em]
You?ve [C5]always [D5]been a [E5]good friend of mine
But you?re [C5]always [D5]sayin? fare[E5]well
And the [C5]only [D5]time that you?re [E5]satisfied
Is with your [C5]feet in the [D5]wishing well
| Em Asus4 | Asus4 Em | Em Asus4 |
| G | G | E |
| E |
Verse 2
[Em]Throw down your gun
[Em]You might shoot yourself
Or is [C]that what you?re [D]tryin? to [Em]do
[Em]Put up a fight
[Em]You believe to be right
And [C]some day the [D]sun will shine [Em]through
You?ve [C5]always [D5]been a [E5]good friend of mine
But you?re [C5]always [D5]sayin? fare[E5]well
And the [C5]only [D5]time that you?re [E5]satisfied
Is with your [C5]feet in the [D5]wishing well
| Em Asus4 | Asus4 Em | Em Asus4 |
| Am | Am |
Bridge
But I [F]know what you?re[G] wishing [A5(m)]for
[F]Love in a [G]peaceful [A5(m)]World
[F]Love in a [G]peaceful [A5(m)]World
[F]Love in a [G]peaceful [A5(m)]World
Pre-solo
| F5 G5 | A5(m) | F5 G5 | A5(m) |
| F5 G5 | A5(m) | F5 G5 | A5(m) |
Solo
| C5 | C5 | D5 | D5 |
| F5 | G | A5 | A5 |
Verse 3
You?ve [F5]always [G5]been a [A5(m)]good friend of mine
But you?re [F5]always [G5]sayin? fare[A5(m)]well
And the [F5]only [G5]time that you?re [A5(m)]satisfied
Is with your [F5]feet in the [G5]wishing well
Outro
| Am Dsus4 | Dsus4 Am | Am Dsus4 | Dsus4 Am |
| Am Dsus4 | Dsus4 Am | Am Dsus4 | Dsus4 Am |
| Am Dsus4 | Dsus4 Am | Am Dsus4 | Dsus4 Am |
| Am Dsus4 | Dsus4 Am | Am Dsus4 | Dsus4 Am |
Outro solo
| Am Dsus4 | Dsus4 Am | Am Dsus4 | Dsus4 Am |
| Am Dsus4 | Dsus4 Am | Am Dsus4 | Dsus4 Am |
Outro continues
| Am Dsus4 | Dsus4 Am | Am Dsus4 | Dsus4 Am |
| Am Dsus4 | Dsus4 Am |
/ slide up
\ slide down
b bend up
r release bend
h hammer-on
p pull-off
mu mute
pb pre-bend
co cut off
pr partial release
bss bend slightly sharp
~~ vibrato
====================================================================== 27 April 2010

Important: The song above is NOT stored on the Chordie server. The original song is hosted at www.guitaretab.com. Chordie works as a search engine and provides on-the-fly formatting. Chordie does not index songs against artists'/composers' will. To remove this song please click here.

Text color:
Chord color:
Chord grids: 
Font size:    
Page size: 

A5 Am Asus4 C C5 D D5 Dsus4 E5 Em F F5 F7 G G5
Rate #1 of 5 versions

Jango Player

Login - add to songbook

SHARE PAGE  



You need to log in to post comments