Guitar Tabs, Chords and Lyrics
Server problems seems to be fixed. Chordie has been experiencing problems with songs disappearing. These issues now seems to be fixed, but still verifying the fix. If you find anything strange, please email admin@chordie.com.


Warriors  Freedom Call

As recorded by Freedom Call
(From the 2002 Album ETERNETY)
Transcribed by Julian Grund
Words and Music by Freedom Call
[E5]0 2 2 x x x
[C5]x 3 5 5 x x
[D5]x 5 7 7 x x
[A5]x 0 2 2 x x
E5VII
x 7 9 9 x x
[C#5]x 4 6 6 x x
[B5]x 2 4 4 0 x
[Ab5]4 6 6 x x x
[F#5]2 4 4 x x x
[Eb5]x 6 8 8 x x
[Db5]x 4 6 6 x x
[E/G#]4 7 x x x x
[A#5]x 1 3 3 x x
[F#/A#]x 1 4 x x x
[Ab/C]x 3 6 x x x
[G#5]4 6 6 x x x
Gtr I (Eb Ab Db Gb Bb Gb) - 'Lead Guitar'
Gtr II (Eb Ab Db Gb Bb Gb) - 'Ryth. Guitar'
Gtr III (Eb Ab Db Gb Bb Gb) - '2nd Guitar'
Intro I
Doubltime Feel Q=95
[E5] [C5] 
[4/4] Gtr II
W H H
| |
[/] [/] 
Gtr I
Wx5 S S S S S S S S S S S S S S S S
 
 |------------||----------------------------------------|
 |------------||o-12-----10----------10-----------------|
 |------------||-----9-9----9-9-12-9----9-9-12-9-9-11-9-|
 |------------||----------------------------------------|
 |------------||o---------------------------------------|
 |------------||----------------------------------------|

[D5] [A5]  
[B]| [B]|
[/] [/]  
S S S S S S S S S S S S S S S S
 
 |--------------------------------------|
 |--------------------------------------|
 |-12-9-9-11-9-9----9-9-9-9-11-9-9-12-9-|
 |---------------12---------------------|
 |--------------------------------------|
 |--------------------------------------|

[E5] [C5]  
[B]| [B]|
[/] [/]  
S S S S S S S S S S S S S S S S
 
 |---------------------------------------|
 |-12-----10----------13-----12----------|
 |----9-9----9-9-12-9----9-9----9-9-12-9-|
 |---------------------------------------|
 |---------------------------------------|
 |---------------------------------------|

1.
[D5] H [A5]S S E E S S
| | | | | |
[/] [/] [/] [/] [/] [/] 
S S S S S S S S S S S S S S S S
 
 |---------------------------------------||
 |-10-----------------------------------o||
 |----9-9-12-9-9-11-9-9-9-9-11-9-9-12-9--||
 |---------------------------------------||
 |--------------------------------------o||
 |---------------------------------------||

2.
D5 N.C.
[2/4] S S S S E S S [4/4] W
| | | |
[/] [/] [/] [/]  
S S S S S S S S S S S S S S S S S S S S S S S S
 
 |--------------------|-------------------------------------------------||
 |-10-----------------|-------------10----------------------------------||
 |----9-9-12-9-9-11-9-|--9-11-12-11----12-11--9-12-11--9----11--9-------||
 |--------------------|----------------------------------13-------13--9-||
 |--------------------|-------------------------------------------------||
 |--------------------|-------------------------------------------------||

|
| Gtr II
| W S S S S S S S S S S S S S S S S
 
 |--------------------|-------------------------------------------------||
 |--------------------|-------12----13-12-------12----------------------||
 |--------------------|-12-14----14-------14-12----14-12----14-12-------||
 |--------------------|----------------------------------16-------16-13-||
 |--------------------|-------------------------------------------------||
 |--------------------|-------------------------------------------------||

Intro II
[D5E5] ~[B5] [C5] [C5] [D5]
S S +E H. e e e e e e e e
 
 |-------------------------------------|----------------------------------------|
 |-------------------------------------|-10---12---13------------10--------10---|
 |-7-9-(9)\----------------------------|----------------9---12--------12--------|
 |-7-9-(9)\----------------------------|----------------------------------------|
 |-5-7-(7)\----------------------------|----------------------------------------|
 |-------------------------------------|----------------------------------------|

|
 
 | PM---------------------------| PM---------| PM----------|

| S S S S S S S S S S S S S S S S S S S S S S S S S S S S S S S S
 
 |-------------------------------------|----------------------------------------|
 |-------------------------------------|----------------------------------------|
 |-7-9---------------------------------|--4-5----------------5-7----------------|
 |-7-9---------------------------------|--4-5--5-5--5-5-5-5--5-7--7-7--7-7--7-7-|
 |-5-7--2---2-2--2-2-2-2-2-2-2-2-2-2-2-|--2-3--3-3--3-3-3-3--3-5--5-5--5-5--5-5-|
 |------0---0-0--0-0-0-0-0-0-0-0-0-0-0-|----------------------------------------|

[D5] [E5] [B5] [C5] [D5] ~~
S S E H. S s e e e Q Q
 
 |-----------------------------------|-----------------------------||
 |-----------------------------------|-------12---13---------------||
 |-12p9------------------------------|-12h14-----------12---14-----||
 |-----------------------------------|-----------------------------||
 |-----------------------------------|-----------------------------||
 |-----------------------------------|-----------------------------||

|
 
 | PM-------------------------| PM----------|

| S S S S S S S S S S S S S S S S S S S S S S S S Q Q
 
 |-----------------------------------|-----------------------------||
 |-----------------------------------|-----------------------------||
 |--7-9------------------------------|--4--5-----------------7-----||
 |--7-9------------------------------|--4--5--5-5--5-5--5-5--7-----||
 |--5-7-2-2-2--2-2-2-2-2-2-2-2-2-2-2-|--2--3--3-3--3-3--3-3--5-----||
 |------0-0-0--0-0-0-0-0-0-0-0-0-0-0-|-----------------------------||

Verse
$
E5VII D5
Gtr II
S S S S S S S S S S S S S S S S S S S S S S S S S S S S S S S S
| | | | | | | | | | | | | | | | | | | | | | | | | | | | | | | |
[/] [/] [/] [/] [/] [/] [/] [/] [/] [/] [/] [/] [/] [/] [/] [/] [/] [/] [/] [/] [/] [/] [/] [/] [/] [/] [/] [/] [/] [/] [/] [/] 
S S S S S S S S S S S S S S S S S S S S S S S S S S S S S S S S
 
 ||-------------------------------------|------------9-------------------------|
 ||o-----12-----10-----9----------------|-----12-----------12------------------|
 ||--9-9----9-9----9-9---9-9-9-11-9-8---|-9-9----9-9---9-9----9-9-9-11h13p11---|
 ||-----------------------------------9-|------------------------------------9-|
 ||o------------------------------------|--------------------------------------|
 ||-------------------------------------|--------------------------------------|

[C#5]S S S S S S S S S S S S S S S S [C5] S S S S S S S S [B5]S S S S S S S S
| | | | | | | | | | | | | | | | | | | | | | | | | | | | | | | |
[/] [/] [/] [/] [/] [/] [/] [/] [/] [/] [/] [/] [/] [/] [/] [/] [/] [/] [/] [/] [/] [/] [/] [/] [/] [/] [/] [/] [/] [/] [/] [/] 
S S S S S S S S S S S S S S S S S S S S S S S S S S S S S S S S
 
 |------------------------------------|--------9-------------------------------||
 |-----12-----10-----9----------------|-12-----------12-----------12-10-9-----o||
 |-9-9----9-9----9-9---9-9-9-11-9-8---|----9-9---9-9----9-9-9-9-9---------11---||
 |----------------------------------9-|----------------------------------------||
 |------------------------------------|---------------------------------------o||
 |------------------------------------|----------------------------------------||

Pre-Chorus
E5VII B5
S S S S S S S S S S S S S S S S
 
 |-12---------12---------11----------11----------|
 |----12-9-12----12-9-12----12----12----12----12-|
 |-----------------------------11----------11----|
 |-----------------------------------------------|
 |-----------------------------------------------|
 |-----------------------------------------------|

|
| Gtr II
| E E E E E E E E
 
 |-----------------------------------------------|
 |-----------------------------------------------|
 |--9----------9----------4-----------4----------|
 |--9----------9----------4-----------4----------|
 |--7----------7----------2-----------2----------|
 |-----------------------------------------------|

E5VII B5
S S S S S S S S S S S S S S S S
 
 |-12---------12---------11----------11-----------|
 |----12-9-12----12-9-12----12----12----12----12--|
 |-----------------------------11----------11-----|
 |------------------------------------------------|
 |------------------------------------------------|
 |------------------------------------------------|

|
| E E E E E E E E
 
 |------------------------------------------------|
 |------------------------------------------------|
 |--9----------9----------4-----------4-----------|
 |--9----------9----------4-----------4-----------|
 |--7----------7----------2-----------2-----------|
 |------------------------------------------------|

E5VII B5
S S S S S S S S S S S S S S S S
 
 |-12---------12---------12----------12----------|
 |----12-9-12----12-9-12----12----12----12----12-|
 |-----------------------------11----------11----|
 |-----------------------------------------------|
 |-----------------------------------------------|
 |-----------------------------------------------|

|
 
 | PM-----| PM------|

| S S S S Q S S S S Q
 
 |-----------------------------------------------|
 |-----------------------------------------------|
 |-------------9----------------------4----------|
 |--9--9-9--9--9----------4--4--4--4--4----------|
 |--7--7-7--7--7----------2--2--2--2--2----------|
 |-----------------------------------------------|

[A5] S S S S S S S S [B5] S S S S S S S S
 
 |-12----------12----------12----------12-----------||
 |----12-10-12----12-10-12----12----12----12----12--||
 |-------------------------------11----------11-----||
 |--------------------------------------------------||
 |--------------------------------------------------||
 |--------------------------------------------------||

|
 
 | PM------|

| S S S S Q S S S S S S S S
 
 |--------------------------------------------------||
 |--------------------------------------------------||
 |--------------2-----------4--4--4--4--4--4--4--4--||
 |--2--2--2--2--2-----------4--4--4--4--4--4--4--4--||
 |--0--0--0--0--0-----------2--2--2--2--2--2--2--2--||
 |--------------------------------------------------||

Chorus
[E5]Gtr II
H. E S S
| | | |
[/] [/] [/] [/] 
S S S S S S S S S S S S S S S S
 
 ||--------------------------------------|
 ||o------12-----10-----9----------------|
 ||--9--9----9-9----9-9---9-9-9-9-11-9---|
 ||------------------------------------9-|
 ||o-------------------------------------|
 ||--------------------------------------|

[B5]H. E S S
| | | |
[/] [/] [/] [/] 
S S S S S S S S S S S S S S S S
 
 |-----------------------------------------|
 |------12-----14-----12-------------------|
 |-9--9----9-9----9-9----9-9-11-11-13p11---|
 |---------------------------------------9-|
 |-----------------------------------------|
 |-----------------------------------------|

[E/G#] Q. E [A5] Q. E
| | | |
[/] [/] [/] [/] 
S S S S S S S S S S S S S S S S
 
 |---------------------------------------|
 |-12------10-----9---10------9----------|
 |-----9-9----9-9---9-----9-9---9-9-11-9-|
 |---------------------------------------|
 |---------------------------------------|
 |---------------------------------------|

To Coda
[E5] Q E E [B5] H
| | | |
/ / o /
S S S S S S S S S S S S S S S S
 
 |------------------------------------------||
 |-14-----12-----10---12-------12-10-9-----o||
 |----9-9----9-9----9----9-9-9---------11---||
 |------------------------------------------||
 |-----------------------------------------o||
 |------------------------------------------||

Break
~~
S E. H. e e e e e e e e
 
 |-----------------------------------|-------------5-------------------|
 |-7-8-------------------------------|-5---7---8-------8---7---5---7---|
 |-----------------------------------|---------------------------------|
 |-----------------------------------|---------------------------------|
 |-----------------------------------|---------------------------------|
 |-----------------------------------|---------------------------------|

|
| Gtr II
 
 | PM-------------------------| PM--------| PM--------|

| S S S S S S S S S S S S S S S S S S S S S S S S S S S S S S S S
 
 |-----------------------------------|---------------------------------|
 |-----------------------------------|---------------------------------|
 |-7-9-------------------------------|-4-5-------------5-7-------------|
 |-7-9-------------------------------|-4-5-5-5-5-5-5-5-5-7-7-7-7-7-7-7-|
 |-5-7--2-2-2--2-2-2-2-2-2-2-2-2-2-2-|-2-3-3-3-3-3-3-3-3-5-5-5-5-5-5-5-|
 |------0-0-0--0-0-0-0-0-0-0-0-0-0-0-|---------------------------------|

D.S. al Coda
~
T T S E H. e e e e Q Q
 
 |------------------------------------|-------------5---------||
 |-7h8p5------------------------------|-5---7---8-------7-----||
 |------------------------------------|-----------------------||
 |------------------------------------|-----------------------||
 |------------------------------------|-----------------------||
 |------------------------------------|-----------------------||

|
 
 | PM-------------------------| PM--------|

| S S S S S S S S S S S S S S S S S S S S S S S S Q Q
 
 |------------------------------------|-----------------------||
 |------------------------------------|-----------------------||
 |-7---9------------------------------|-4-5-------------7-----||
 |-7---9------------------------------|-4-5-5-5-5-5-5-5-7-----||
 |-5---7-2-2-2--2-2-2-2-2-2-2-2-2-2-2-|-2-3-3-3-3-3-3-3-5-----||
 |-------0-0-0--0-0-0-0-0-0-0-0-0-0-0-|-----------------------||

Guitar Break
&
E5VII
[5/4] Gtr II
E +E W
| |
[/] [/]  
S S S S S S S S S S S S S S S S S S S S
 
 |---------------------------------------------|
 |-----12-----10-----9---10-----9--------------|
 |-9-9----9-9----9-9---9----9-9---9-9-11-9-8---|
 |-------------------------------------------9-|
 |---------------------------------------------|
 |---------------------------------------------|

[D5]S E. +W
| | |
[/] [/] [/]  
S S S S S S S S S S S S S S S S S S S S
 
 |--------------9----------------------------------|
 |------12------------12---10-----9----------------|
 |-9-9-----9--9---9-9----9----9-9---9-9-11h13p11---|
 |-----------------------------------------------9-|
 |-------------------------------------------------|
 |-------------------------------------------------|

9[C5]/8
S S S S E H Q
| | |
[/] [/] [/]  
S S S S S S S S S S S S S S S S S S
 
 |-------------------10----------------------|
 |-----10-----12------------12-----10-9------|
 |-9-9----9-9----9-9----9-9----9-9------11-8-|
 |-------------------------------------------|
 |-------------------------------------------|
 |-------------------------------------------|

|
| Gtr III
| S S S S S S S S S S S S S S S S S S
 
 |-------------------------------------------|
 |------8------8------8------8------7-5------|
 |-9-9----9-9----9-9----9-9----9-9-------8-4-|
 |-------------------------------------------|
 |-------------------------------------------|
 |-------------------------------------------|

[B5]  
[4/4] W
|
[/]  
S S S S S S S S S S S S S S S S
 
 |--------------9-11--9--------------------------||
 |-------10-12----------12-10--------------------||
 |-11-13----------------------13-11-9------------||
 |------------------------------------13-11-9----||
 |--------------------------------------------12-||
 |-----------------------------------------------||

|
| S S S S S S S S S S S S S S S S
 
 |-----------------7-----------------------------||
 |--------7--9-10----10--9--7--------------------||
 |--8--9-----------------------9--8-6------------||
 |-------------------------------------9--7-6----||
 |---------------------------------------------7-||
 |-----------------------------------------------||

Interlude
E5VII C5 D5 A5
[4/4] Gtrs I, II
 
 PM----------------------------------------------|

e S S e S S e S S e S S e S S e S S e S S e S S
 
 ||--------------------------|---------------------------||
 ||o-------------------------|--------------------------o||
 ||--9-9-9-9-9-9-5-5-5-5-5-5-|-7-7-7-7-7-7---------------||
 ||--9-9-9-9-9-9-5-5-5-5-5-5-|-7-7-7-7-7-7-7-7-7-7-7-7---||
 ||o-7-7-7-7-7-7-3-3-3-3-3-3-|-5-5-5-5-5-5-7-7-7-7-7-7--o||
 ||--------------------------|-------------5-5-5-5-5-5---||

[E5]Gtr I[C5] [D5] [A5]
Q Q Q Q Q Q Q Q
 
 |-------------------------|-------------------------|
 |-0-----0-----------------|-3-----3-----------------|
 |-0-----0-----0-----0-----|-2-----2-----2-----2-----|
 |-2-----2-----2-----2-----|-0-----0-----2-----2-----|
 |-2-----2-----3-----3-----|-0-----0-----0-----0-----|
 |-0-----0-----------------|-------------------------|

|
| Gtr II
 
 | PM----------------------------------------------|

| e S S e S S e S S e S S e S S e S S e S S e S S
 
 |-------------------------|-------------------------|
 |-------------------------|-------------------------|
 |-9-9-9-9-9-9-5-5-5-5-5-5-|-7-7-7-7-7-7-------------|
 |-9-9-9-9-9-9-5-5-5-5-5-5-|-7-7-7-7-7-7-7-7-7-7-7-7-|
 |-7-7-7-7-7-7-3-3-3-3-3-3-|-5-5-5-5-5-5-7-7-7-7-7-7-|
 |-------------------------|-------------5-5-5-5-5-5-|

[E5]Gtr I[C5] [D5]
Q Q Q Q Q Q Q Q
 
 |-------------------------|-------------------------|
 |-0-----0-----------------|-3-----3-----3-----3-----|
 |-0-----0-----0-----0-----|-2-----2-----2-----2-----|
 |-2-----2-----2-----2-----|-0-----0-----0-----0-----|
 |-2-----2-----3-----3-----|-0-----0-----0-----0-----|
 |-0-----0-----------------|-------------------------|

|
| Gtr II
 
 | PM----------------------------------------------|

| e S S e S S e S S e S S e S S e S S e S S e S S
 
 |-------------------------|-------------------------|
 |-------------------------|-------------------------|
 |-9-9-9-9-9-9-5-5-5-5-5-5-|-7-7-7-7-7-7-7-7-7-7-7-7-|
 |-9-9-9-9-9-9-5-5-5-5-5-5-|-7-7-7-7-7-7-7-7-7-7-7-7-|
 |-7-7-7-7-7-7-3-3-3-3-3-3-|-5-5-5-5-5-5-5-5-5-5-5-5-|
 |-------------------------|-------------------------|

Guitar Solo
[F#5]Gtr II[C#5]
|--3--|
H. E E E W
| | | | |
[/] [/] [/] [/] [/]  
|--3--|
H. E E E H H
 
 |-------------------|----------------|
 |-19-------19-21-19-|-21b23----21----|
 |-------------------|----------------|
 |-------------------|----------------|
 |-------------------|----------------|
 |-------------------|----------------|

[F#/A#] [B5] [F#5] [C#5] 
[B]| [B]| [B]| [B]|
[/] [/] [/] [/] 
E. E. E E. E. E T T E E. E Q S S S S
 
 |-18--19--21-21--19--18--|-18h19-18------------------18-19--|
 |------------------------|----------21--19-21--19-21--------|
 |------------------------|----------------------------------|
 |------------------------|----------------------------------|
 |------------------------|----------------------------------|
 |------------------------|----------------------------------|

[F#5]Gtr II[C#5]
|--3--|
H. E E E W
| | | | |
[/] [/] [/] [/] [/]  
Gtr I
|--3--|
E E +H E E E Q. E H
 
 |-21----------------------|---------19-------|
 |-----19-(19)----19-21-19-|-21b23------21----|
 |-------------------------|------------------|
 |-------------------------|------------------|
 |-------------------------|------------------|
 |-------------------------|------------------|

|
| Gtr III
| |--3--|
| E E +H E E E Q. E H
 
 |-------------------------|------------------|
 |-19----------------------|---------16-------|
 |-----18-(18)----15-16-15-|-16b18------16----|
 |-------------------------|------------------|
 |-------------------------|------------------|
 |-------------------------|------------------|

[F#/A#] [B5] [F#5] [C#5] 
[B]| [B]| [B]| [B]|
[/] [/] [/] [/] 
~~
E. E. E E. E. E T T E T T E T T S H
 
 |-18--19--21-21--19--18--|-18h19p18-16h18p16----------------|
 |------------------------|-------------------19h21p19-------|
 |------------------------|----------------------------18----|
 |------------------------|----------------------------------|
 |------------------------|----------------------------------|
 |------------------------|----------------------------------|

|
| ~~
| E. E. E E. E. E T T E T T E T T S H
 
 |---------18-18----------|----------------------------------|
 |-19--21---------21--19--|-19h21p19-18h19p18----------------|
 |------------------------|-------------------20h22p20-------|
 |------------------------|----------------------------18----|
 |------------------------|----------------------------------|
 |------------------------|----------------------------------|

Chorus II
[Ab5] H. E S S
| | | |
[/] [/] [/] [/] 
S S S S S S S S S S S S S S S S
 
 ||---------------------------------------------------|
 ||o--------16-------14-------13----------------------|
 ||--13--13----13-13----13-13----13-13-13-13-15-13----|
 ||------------------------------------------------13-|
 ||o--------------------------------------------------|
 ||---------------------------------------------------|

[Eb5] H. E S S
| | | |
[/] [/] [/] [/] 
S S S S S S S S S S S S S S S S
 
 |--------------------------------------------------|
 |--------16-------18-------16----------------------|
 |-13--13----13-13----13-13----13-13-15-15-17p15----|
 |-----------------------------------------------13-|
 |--------------------------------------------------|
 |--------------------------------------------------|

[Ab/C] Q. E [Db5] Q. E
| | | |
[/] [/] [/] [/] 
S S S S S S S S S S S S S S S S
 
 |---------------------------------------------------|
 |-16--------14-------13----14--------13-------------|
 |-----13-13----13-13----13-----13-13----13-13-15-13-|
 |---------------------------------------------------|
 |---------------------------------------------------|
 |---------------------------------------------------|

[Ab5] Q E E [Eb5] H
| | | |
/ / o /
S S S S S S S S S S S S S S S S
 
 |---------------------------------------------------||
 |-18-------16-------14----16----------16-14-13-----o||
 |----13-13----13-13----13----13-13-13----------15---||
 |---------------------------------------------------||
 |--------------------------------------------------o||
 |---------------------------------------------------||

[Ab5]Gtr I
S S S S S S S S S S S S S S S S
 
 ||--------------------------------------------------|
 ||o-------16-------14-------13----------------------|
 ||--13-13----13-13----13-13----13-13-13-13-15-13----|
 ||-----------------------------------------------13-|
 ||o-------------------------------------------------|
 ||--------------------------------------------------|

|
| Gtr II
 
 | PM----------------------------------------------

| S S S S S S S S S S S S S S S S
 
 ||--------------------------------------------------|
 ||o-------------------------------------------------|
 ||--------------------------------------------------|
 ||--------------------------------------------------|
 ||o-------------------------------------------------|
 ||---4--4--4--4--4--4--4--4--4--4--4--4--4--4--4--4-|

[Eb5] S S S S S S S S S S S S S S S S
 
 |-------------------------------------------------|
 |-------16-------18-------16----------------------|
 |-13-13----13-13----13-13----13-13-15-15-17p15----|
 |----------------------------------------------13-|
 |-------------------------------------------------|
 |-------------------------------------------------|

|
 
 |----------------------------------------------|

| S S S S S S S S S S S S S S S S
 
 |-------------------------------------------------|
 |-------------------------------------------------|
 |-------------------------------------------------|
 |-------------------------------------------------|
 |--6--6--6--6--6--6--6--6--6--6--6--6--6--6--6--6-|
 |-------------------------------------------------|

[Ab/C] S S S S S S S S [Db5] S S S S S S S S
 
 |-------------------------------------------------|
 |-16-------14-------13----14-------13-------------|
 |----13-13----13-13----13----13-13----13-13-15-13-|
 |-------------------------------------------------|
 |-------------------------------------------------|
 |-------------------------------------------------|

|
 
 | PM----------------------------------------------

| S S S S S S S S S S S S S S S S
 
 |-------------------------------------------------|
 |-------------------------------------------------|
 |-------------------------------------------------|
 |-------------------------------------------------|
 |--3--3--3--3--3--3--3--3--4--4--4--4--4--4--4--4-|
 |-------------------------------------------------|

[Ab5] S S S S S S S S [Eb5] S S S S S S S S
 
 |---------------------------------------------------||
 |-18-------16-------14----16----------16-14-13-----o||
 |----13-13----13-13----13----13-13-13----------15---||
 |---------------------------------------------------||
 |--------------------------------------------------o||
 |---------------------------------------------------||

|
 
 |----------------------------------------------|

| S S S S S S S S S S S S S S S S
 
 |---------------------------------------------------||
 |--------------------------------------------------o||
 |---------------------------------------------------||
 |---------------------------------------------------||
 |--------------------------6--6--6--6--6--6--6--6--o||
 |--4--4--4--4--4--4--4--4---------------------------||

Outro
[G#5]Gtr II[E5]
[B]| [B]|
[/] [/]  
Gtr I
S S S S S S S S S S S S S S S S
 
 |-------------------------------------------------|
 |-16-------14-------------14----------------------|
 |----13-13----13-13-16-13----13-13-16-13-13-15-13-|
 |-------------------------------------------------|
 |-------------------------------------------------|
 |-------------------------------------------------|

|
| Gtr III
| S S S S S S S S S S S S S S S S
 
 |-------------------------------------------------|
 |-16-------14-------------14----------------------|
 |----13-13----13-13-16-13----13-13-16-13-13-15-13-|
 |-------------------------------------------------|
 |-------------------------------------------------|
 |-------------------------------------------------|

[F#5] [C#5]  
[B]| [B]|
[/] [/]  
S S S S S S S S E +E Q
 
 |-------------------------------------|
 |-------------------------------------|
 |-16-13-13-15-13-13----13-16-(16)S20--|
 |-------------------16----------------|
 |-------------------------------------|
 |-------------------------------------|

|
| S S S S S S S S E +E Q
 
 |-------------------------------------|
 |-------------------------14-(14)S19--|
 |-16-13-13-15-13-13----13-------------|
 |-------------------16----------------|
 |-------------------------------------|
 |-------------------------------------|

[G#5] [E5]  
[B]| [B]|
[/] [/]  
S S S S S S S S S S S S S S S S
 
 |-------------------------------------------------|
 |-16-------14-------------17-------16-------------|
 |----13-13----13-13-16-13----13-13----13-13-16-13-|
 |-------------------------------------------------|
 |-------------------------------------------------|
 |-------------------------------------------------|

[F#5] H [G#5] S S S Q S
| | | | |
[/] [/] [/] [/] [/] 
S S S S S S S S S S S Q S
 
 |------------------------------------------*|
 |-14---------------------------------------*|
 |----13-13-16-13-13-15-13-16-16-16-16\-----*|
 |------------------------------------------*|
 |------------------------------------------*|
 |------------------------------------------*|

Duration Legend
 
 ---------------
 W - whole; H - half; Q - quarter; E - 8th; S - 16th; T - 32nd; X - 64th; a - acciaccatura

+ - note tied to previous; . - note dotted; .. - note double dotted
Uncapitalized letters represent notes that are staccato (1/2 duration)
Irregular groupings are notated above the duration line
Duration letters will always appear directly above the note/fret number it represents the
duration for. Duration letters with no fret number below them represent rests. Multi-
bar rests are notated in the form Wxn, where n is the number of bars to rest for. Low
melody durations appear below the staff
Tablature Legend
 
 ----------------

h - hammer-on
p - pull-off
b - bend
pb - pre-bend
r - bend release (if no number after the r, then release immediately)
/\ - slide into or out of (from/to "nowhere")
s - legato slide
S - shift slide
- natural harmonic
(n) - artificial harmonic
n(n) - tapped harmonic
~ - vibrato
tr - trill
T - tap
TP - trem. picking
PM - palm muting
\n/ - tremolo bar dip; n = amount to dip
\n - tremolo bar down
n/ - tremolo bar up
/n\ - tremolo bar inverted dip
= - hold bend; also acts as connecting device for hammers/pulls
- volume swell (louder/softer)
x - on rhythm slash represents muted slash
o - on rhythm slash represents single note slash
Misc Legend
 
 -----------

| - bar
|| - double bar
||o - repeat start
o|| - repeat end
*| - double bar (ending)
: - bar (freetime)
$ - Segno
& - Coda
Tempo markers - = BPM(8/16=s8/s16), where s8 = swing 8ths, s16 = swing 16ths

Important: The song above is NOT stored on the Chordie server. The original song is hosted at www.guitaretab.com. Chordie works as a search engine and provides on-the-fly formatting. Chordie does not index songs against artists'/composers' will. To remove this song please click here.

Text color:
Chord color:
Chord grids: 
Font size:    
Page size: 

A#5 A5 Ab/C Ab5 B B5 C#5 C5 D5 Db5 E/G# E5 Eb5 F#/A# F#5 G#5
Rate #1 of 3 versions

Jango Player

Login - add to songbook

SHARE PAGE  




You need to log in to post comments