Guitar Tabs, Chords and Lyrics
Server problems seems to be fixed. Chordie has been experiencing problems with songs disappearing. These issues now seems to be fixed, but still verifying the fix. If you find anything strange, please email admin@chordie.com.


Dream Come True  Frozen Ghost

Transcribed by Richard Sibley.
Feel free to email me at "richard at vaultworld dot com"
I have this song in "powertab" format as well - email me or search for
it!
[Intro] 
[4/4] [2/4] [4/4]  
 
 E|-----3---3-----------|-----3---|-3----|
 B|-----3---1---0h1p0---|-----0---|-3----|
 G|---0---0---0-------0-|---0---0-|-2----|
 D|---------------------|---------|-0----|
 A|---------------------|---------|------|
 E|-3-------------------|-3-------|-3----|

[Verse 1] 
[G] [D/F#] [Dm/F] [E] [Am] [C/G] [D/F#] [E]  
 
 E|-----3------2---|-----------0-0--|-----0------0-0-|-----0-----0-0---|
 B|-----3------3---|-----3-----0-0--|-----1------0-1-|-----1-----0-0---|
 G|---0------0---0-|---0---0--------|---2------2-----|---2---2---------|
 D|----------------|----------------|----------------|-----------------|
 A|----------------|----------------|-0--------------|-----------------|
 E|-3------2-------|-1-------0------|--------3-------|-2-------0-------|

[Am] [C/G] [F] [C] [F] [C] [Dm] [E]  
 
 E|-----0------0-0-|-----3-1-0---0--|-----3-1-0---0---|-------0-(0)-0-0-0 -|
 B|-----1------1-1-|---1-1----------|---1-1---------1-|-----3-----------0 -|
 G|---2------2-----|-----------0----|-----------0-----|---2---------1-2-- -|
 D|----------------|-3--------------|-3---------------|-0---------------- -|
 A|-0--------------|---------3------|---------3-------|------------------ -|
 E|--------3-------|----------------|-----------------|----------0------- -|

[Am] [C/G] [F] [G] [C] [F] [C] [E]  
 
 E|-0---0------0-0-|-----1---3-----3-|-----0-----------|-------------|
 B|-1---1------0-1-|-----1-----3-----|-----1-----1---1-|----------0--|
 G|---2------2-----|---2---2-----0---|---0-------------|----1--2-----|
 D|----------------|-3---------------|-------2-3---2---|----2--2--2--|
 A|-0--------------|-----------------|-3---------------|-------------|
 E|--------3-------|---------3-------|-----------------|-0-----------|

[Am] [C/G] [F] [G] [C] [F] [C] [F] [G] 
[2/4] [4/4]  
 
 E|-----0------0-0-|-----1---3-----3-|-----0-----------|---1---1-|-^3---- |
 B|-----1------0-1-|-----1-----3-----|-----1-----1---1-|---1---1-|-^3---- |
 G|---2------2-----|---2---2-----0---|---0-------------|---------|-^0---- |
 D|----------------|-3---------------|-------2-3---2---|-3---3---|------- |
 A|-0--------------|-----------------|-3---------------|---------|------- |
 E|--------3-------|---------3-------|-----------------|---------|-^3---- |

[Verse 2 - Same as verse 1, but replace last two bars witb tbis one] 
[Esus4] [E]  
 
 E|-0-------0---------|
 B|-0-------0---------|
 G|-2-------1---------|
 D|-2-------2---------|
 A|-2-------2---------|
 E|-0-------0---------|

[Cborus] 
4x[Am] [F] [C] [G]
 
 E||---8-8---8---8---8-8-8---8---8---8-|-8-8---8---8---8-7-7---8---810--| |
 B||o-1010--10--10--101010--10--10--10-|-8-8---8---8---8-8-8---8---8-8-o| |
 G||---9-9---9---9---91010--10--10--10-|-9-9---9---9---9-7-7---7---7-7--| |
 D||-----------------------------------|--------------------------------| |
 A||o----------------------------------|-------------------------------o| |
 E||-----------------------------------|--------------------------------| |

[1] [+] [2] [+] [3] [+] [4] [+] [1] [+] [2] [+] [3] [+] [4] [+] 
[Solo] 
[Eb] [Dm] [Am] [Bb]  
 
 E|-3--3-6-5-(5)---------0-1-|-3-1-(1)-0-0-1--------|
 B|--------------6-3-(3)-----|---------------3-(3)--|
 G|--------------------------|----------------------|
 D|--------------------------|----------------------|
 A|--------------------------|----------------------|
 E|--------------------------|----------------------|

[Eb] [Dm] [Am] [Bb]  
 
 E|-3--3-6-5-(5)-1--------|---------1-0------|
 B|----------------3-(3)--|---1-(1)-----3----|
 G|-----------------------|-2----------------|
 D|-----------------------|------------------|
 A|-----------------------|------------------|
 E|-----------------------|------------------|

[Eb] [Dm] [Am] [Bb] [Bb] 
[2/4]  
 
 E|-3--3-6-5-(5)----------|-3-1-(1)-0-0-1--------|------0-1-0---|
 B|--------------6-3-(3)--|---------------3-(3)--|-(3)--------1-|
 G|-----------------------|----------------------|--------------|
 D|-----------------------|----------------------|--------------|
 A|-----------------------|----------------------|--------------|
 E|-----------------------|----------------------|--------------|

[C] [Bb/D] [Esus4E] 
[4/4]  
 
 E|--------0-1-0---|---------------|-----------|
 B|-3------------1-|-3-1-----------|-----------|
 G|----------------|-----3-2-0-----|-2----1----|
 D|----------------|------------3--|-2----2----|
 A|----------------|---------------|-----------|
 E|----------------|---------------|-----------|

[Cborus] 
[Am] [F] [C] [G]  
 
 E|----------8-------8-8---8---8---8-|-8-8---8---8---8-7-7---8---810-|
 B|---------10------1010--10--10--10-|-8-8---8---8---8-8-8---8---8-8-|
 G|----------9------1010--10--10--10-|-9-9---9---9---9-7-7---7---7-7-|
 D|----------------------------------|-------------------------------|
 A|----------------------------------|-------------------------------|
 E|----------------------------------|-------------------------------|

[1] [+] [2] [+] [3] [+] [4] [+] [1] [+] [2] [+] [3] [+] [4] [+] 
3x[Am] [F] [C] [G]
 
 E||---8-8---8---8---8-8-8---8---8---8-|-8-8---8---8---8-7-7---8---810--| |
 B||o-1010--10--10--101010--10--10--10-|-8-8---8---8---8-8-8---8---8-8-o| |
 G||---9-9---9---9---91010--10--10--10-|-9-9---9---9---9-7-7---7---7-7--| |
 D||-----------------------------------|--------------------------------| |
 A||o----------------------------------|-------------------------------o| |
 E||-----------------------------------|--------------------------------| |

[1] [+] [2] [+] [3] [+] [4] [+] [1] [+] [2] [+] [3] [+] [4] [+] 
[Outro] 
[F] 8x
 
 E||------3------3---||
 B||o---------0-----o||
 G||-----------------||
 D||----3---3--------||
 A||o---------------o||
 E||--1--------------||


Important: The song above is NOT stored on the Chordie server. The original song is hosted at www.guitaretab.com. Chordie works as a search engine and provides on-the-fly formatting. Chordie does not index songs against artists'/composers' will. To remove this song please click here.

Text color:
Chord color:
Chord grids: 
Font size:    
Page size: 

Am Bb Bb/D C C/G D/F# Dm Dm/F E Eb Esus4 F G
Rate #1 of 2 versions

Login - add to songbook

SHARE PAGE  




You need to log in to post comments