Guitar Tabs, Chords and Lyrics
Server problems seems to be fixed. Chordie has been experiencing problems with songs disappearing. These issues now seems to be fixed, but still verifying the fix. If you find anything strange, please email admin@chordie.com.


Lives of Crime  Fruit Bats

Guitar
Tabbed by Emerson (flipstick13)
im new at this, so go easy on me
~ an index of chords are at the bottom ~
INTRO (all intro chords played as "one - and a two")
[E] [A] [E] [A] [E]  
 
 e|---7----5----4----0----0---|
 B|---9----5----5----2----0---|
 G|---9----6----4----2----1---|
 D|---9----7----6----2----2---|
 A|---7----7----7----0----2---|
 E|---7----5----4----0----0---|

VERSE 1
[F#]Oh, don't you grieve, don't cry, don't weep[Bm], no-o[E]h
Your t[F#]ears are just the creek on which you f[Bm]loat away from
m[E]e
[F#] You gotta have the heart of a li[B]on[E] [B] [A] [E]
VERSE 2
[F#]Hey don't you sigh, don't sigh, don't breat[Bm]he no-o[E]h
Your b[F#]reath is just the air on which you dri[Bm]ft away from m[E]e
[F#] You gotta have the lungs of a wha[B]le [E] [B] [A] [E]
BRIDGE
F#, C
CHORUS
[G] Past packing day[A] and it's OK[C]
[G] Past packing day[A] and it's OK[C]
[G] Once was coming [A]down to the [C]wire
[G] Blind in the str[A]eam, bogged [C]in the mire [A]
VERSE 3
[F#6] [F#] [F#9] [Bm] [E7]  
 
 e|---2----2--------------------4-----------2-------0------|
 B|---4----2--------------------2-----------3-------3------|
 G|---3----3--------------------3-----------4-------1------|
 D|---4----4--------------------4-----------4-------2------|
 A|--------------------------------------------------------|
 E|--------------------------------------------------------|

Hey don't you look, don't look, don't see no-oh
[F#6] [F#] [F#9] [Bm] [E7]  
 
 e|----2-------2-----------------4-----------2------------0|
 B|----4-------2-----------------2-----------3------------3|
 G|----3-------3-----------------3-----------4------------1|
 D|----4-------4-----------------4-----------4------------2|
 A|--------------------------------------------------------|
 E|--------------------------------------------------------|

Your vision's just the road on which you drive away from me
e|--[F#]2--|
B|--2--|
G|--3--|
D|--4--|
A|-----|
E|-----| B E B A E
You gotta have a love like a fire
BRIDGE 2
F#, C
CHORUS TO OUTRO
[G] Past packing day[A] and it's OK[C]
[G] Past packing day[A] and it's OK[C]
[G] We're just a pro[A]duct of thes[C]e times
[G] And must not aton[A]e for lives of [C]crime
[G] We're just a pro[A]duct of thes[C]e times
[G] And must not aton[A]e for lives of c[C]rime[A]
for lives of cr[C]ime[A]
for lives of cr[C]ime[A]
end song on one G stroke
Index of chords (in order of appearance)
[E] [F#] [Bm] [B] [A] [C] [G]  
 
 e|-----0-----2-----2-----2-----0-----0-----3-----|
 B|-----0-----2-----3-----4-----2-----1-----0-----|
 G|-----1-----3-----4-----4-----2-----0-----0-----|
 D|-----2-----4-----4-----4-----2-----2-----0-----|
 A|-----2-----4-----2-----2-----0-----3-----2-----|
 E|-----0-----2-----2-----2-----0-----0-----3-----|

~Werd~

Important: The song above is NOT stored on the Chordie server. The original song is hosted at www.guitaretab.com. Chordie works as a search engine and provides on-the-fly formatting. Chordie does not index songs against artists'/composers' will. To remove this song please click here.

Text color:
Chord color:
Chord grids: 
Font size:    
Page size: 

A B Bm C E E7 F# F#6 F#9 G
Rate #1 of 2 versions

Login - add to songbook

SHARE PAGE  




You need to log in to post comments