Guitar Tabs, Chords and Lyrics
Update 25:10. 13:00. Site is back up running again. Songbooks are recovered. Woring on getting search back up..


Two Beats Off  Fugazi

[A]  
 
 ---0*--------------------------------------------------------------------------|
 ---x---------------------------------------------------------------------------|
 ---9---------------------------------------------------------------------------|
 ---7---------------------------------------------------------------------------|
 ---0---------------------------------------------------------------------------|
 -------------------------------------------------------------------------------|

*hit this note occasionally, to give a full ringing sound.
Riff 2:
[D] [A] [A#] [D] [E]  
 
 ------------------------------------------------------------------------------|
 ------------------------------------------------------------------------------|
 ------------------------------------------------------------------------------|
 -12\---7/---8/---12\--(2)-----------------------------------------------------|
 -12\---7/---8/---12\--(2)-----------------------------------------------------|
 -10\---5/---6/---10\---0------------------------------------------------------|

Riff 3:
 
 ----------------------------------|-------------------------------------------|
 ----------------------------------|-------------------------------------------|
 ----------------------------------|-------------------------------------------|
 ----------------------------------|-------------------------(2)---------------|
 -------------------------3-4-5----|-------------------------(2)---------------|
 -5-4-3-5-4-3-5-4-3-5-4-3----------|-5-4-3-5-4-3-5-4-3-5-4-3--0----------------|

(x3)
Riff 4:
[E] [E] [G] [G] [G] [(s)] [A] [A] [A]  
 
 ------------------------------------------------------------------------------|
 ------------------------------------------------------------------------------|
 ---9-9-------------12-12-12--12/14--14-14-14----------------------------------|
 ---9-9-------------12-12-12--12/14--14-14-14----------------------------------|
 ---7-7-------------10-10-10--10/12--12-12-12----------------------------------|
 ------------------------------------------------------------------------------|

play Riff 4 during this bass line, lining up the above chords as shown:
[E] [E] [G] [G] [G] [(s)] [A] [A] [A]  
 
 G----------2-0----------------------------------------------------------------|
 D--2-2--------------2--2------3-----------------------------------------------|
 A------3-------------------3--------------------------------------------------|
 E-----------------------------------------------------------------------------|

[Riff 1] 
i cut my nails to the quick,
but still i was caught with my hand in the till...
(another guitar plays Riff 1 over Riff 2)
[Riff 2]x2
red-handed... red handed.
[Riff 3] 
give me something, give me anything.
the threat of everything ... nothing at all.
[Riff 3] 
fingers reaching, trophy swelling that's when desire trips me up...
[Riff 1] 
got a new technique money let's the pieces fit where they fall.
[Riff 3] 
privilege - it sanctions everything. security - a net under it all.
[Riff 3] 
my fingers reaching, the trophy swelling. that's when desire trips me up.
[Riff 1] 
Once I was a body to see... now im just a baby's mouth to feed.
[Riff 3] 
A vandal... any...???...im against it all.
[Riff 3] 
fingers, trophy swelling. that's when desire trips me up...
[Riff 1] 
i cut my nails to the quick,
but still i was caught with my hand in the till.
[Riff 2] 
red-handed...
[Riff 4 bassline only]x2
Red handed!
[Riff 4] 
Caught with my... caught with my...(repeat a bunch of times.)
Caught with my red hand.
Thats, it, I take no credit.

Important: The song above is NOT stored on the Chordie server. The original song is hosted at www.guitaretab.com. Chordie works as a search engine and provides on-the-fly formatting. Chordie does not index songs against artists'/composers' will. To remove this song please click here.

Text color:
Chord color:
Chord grids: 
Font size:    
Page size: 

A A# D E G
Rate #0 of 2 versions

Jango Player

Login - add to songbook

SHARE PAGE  



You need to log in to post comments