Guitar Tabs, Chords and Lyrics
Major upgrade!! After one year development the new version of Chordie is now online! Please give feedback.


Right Where I Need to Be  Gary Allan

 
 -----------------------------------------------------------------------------

Right Where I Need To Be
by: Gary Allan
 
 -----------------------------------------------------------------------------

Tabbed by: David / "Gitrdone92"
Tuning: Standard EADGBe
I'm not sure if this is how Gary plays it but, it sounds good to me,
although I haven't heard the song in a while. Really easy song though, and
it's great for beginners.
Intro:
 
 e|---10--10-10--10----10----10----10--10/12--12---12--12---12--12-----------|
 B|---7/8--------8\7-7----7---7--7------7/10----10-10----10-10----10---------|
 G|--------------------------------------------------------------------------|
 D|--------------------------------------------------------------------------|
 A|--------------------------------------------------------------------------|
 E|--------------------------------------------------------------------------|
 e|---10--10-10--10----10----10----------------------------------------------|
 B|---7/8--------8\7-7----7-------7\3/5~-------------------------------------|
 G|--------------------------------------------------------------------------|
 D|--------------------------------------------------------------------------|
 A|--------------------------------------------------------------------------|
 E|--------------------------------------------------------------------------|

Intro is played then a drum fill is played then I think the intro is repeated.
After that Gary starts singing.
These are the tabs for the chords to use during the song:
[G] [D] [A]  
 
 e|------3---------------2---------------x-----------------------------------|
 B|------3---------------3---------------2-----------------------------------|
 G|------0---------------2---------------2-----------------------------------|
 D|------0---------------0---------------2-----------------------------------|
 A|------2---------------0---------------0-----------------------------------|
 E|------3---------------x---------------x-----------------------------------|

[G] There's a p[D]lane flyin' [A]outta here tonight
[G] Destin[D]ation New Or[A]leans
[G] Boss man [D]says my big pro[A]motion's on the line
He says that's[G] right where [D]I need to [A]be
[G]Lately I've been [D]on the road [A]more than I've been home
All this [G]leavin' her a[D]lone is killin'[A] me
And [G]holdin' her right [D]now has got me [A]thinkin' more and more
This is [G]right where [D]I need to [A]be
Where when I [G]hear her I can [D]see her
I can [A]smell her sweet perfume
I can [G]feel her skin again[D]st me when I s[A]leep
Where I won't [G]miss her I can [D]kiss her
Any[A]time that I want to
Yeah that's [G]right where [D]I need to [A]be
Yeah that's [G]right where [D]I need to [A]be
WHAOW!
[G] [D] [A]  
[G] [D] [A]  
[G] There's a [D]plane flyin' [A]outta here tonight
[G] With an [D]empty first class [A]seat
[G] Cause I've finally [D]got all my pri[A]orities in line
And I'm [G]right where [D]I need to [A]be
Where when I [G]hear her I can [D]see her
I can [A]smell her sweet perfume
I can [G]feel her skin again[D]st me when I s[A]leep
Where I won't [G]miss her I can [D]kiss her
Any[A]time that I want to
Yeah that's [G]right where [D]I need to [A]be
Yeah I'm rig[G]ht where [D]I need to [A]be
************************************
| / slide up
| \ slide down
| ~ vibrato
| x Mute note
************************************

Important: The song above is NOT stored on the Chordie server. The original song is hosted at www.guitaretab.com. Chordie works as a search engine and provides on-the-fly formatting. Chordie does not index songs against artists'/composers' will. To remove this song please click here.

Text color:
Chord color:
Chord grids: 
Font size:    
Page size: 

A D G
Rate #1 of 6 versions

Login - add to songbook

SHARE PAGE  



You need to log in to post comments