Guitar Tabs, Chords and Lyrics
Login is temporarily disabled for some users. Do not panic. Will be back in an hour or two. DO NOT REREGISTER!!


Back on the Streets  Gary Moore

Back On The Streets---Gary Moore
Tunning:Standard
Guitar 1
S S S S S S S S S S S S S S S S
 
 E||--15-12-------15-12-------15-12-------15-12-------|
 B||--------15-13-------15-13-------15-13-------15-13-|
 G||--------------------------------------------------|
 D||--------------------------------------------------|
 A||--------------------------------------------------|
 E||--------------------------------------------------|

S S S S S S S S S S S S S S S S
 
 --15-12-------15-12-------15-12-------15-12-------|
 --------15-13-------15-13-------15-13-------15-13-|
 --------------------------------------------------|
 --------------------------------------------------|
 --------------------------------------------------|
 --------------------------------------------------|

S S S S S S S S S S S S S S S S
 
 --15-12-------15-12-------15-12-------15-12-------|
 --------15-13-------15-13-------15-13-------15-13-|
 --------------------------------------------------|
 --------------------------------------------------|
 --------------------------------------------------|
 --------------------------------------------------|

S S S S S S S S S S S S S S S S
 
 --15-12-------15-12-------15-12-------15-12-------|
 --------15-13-------15-13-------15-13-------15-13-|
 --------------------------------------------------|
 --------------------------------------------------|
 --------------------------------------------------|
 --------------------------------------------------|

S S S S S S S S S S S S S S S S
 
 --15-12-------15-12-------15-12-------15-12-------|
 --------15-13-------15-13-------15-13-------15-13-|
 --------------------------------------------------|
 --------------------------------------------------|
 --------------------------------------------------|
 --------------------------------------------------|

S S S S S S S S S S S S S S S S
 
 --15-12-------15-12-------15-12-------15-12-------|
 --------15-13-------15-13-------15-13-------15-13-|
 --------------------------------------------------|
 --------------------------------------------------|
 --------------------------------------------------|
 --------------------------------------------------|

S S S S S S S S S S S S S S S S W
 
 --15-12-------15-12-------15-12-------15-12-------|--15b~----------------|
 --------15-13-------15-13-------15-13-------15-13-|----------------------|
 --------------------------------------------------|----------------------|
 --------------------------------------------------|----------------------|
 --------------------------------------------------|----------------------|
 --------------------------------------------------|----------------------|

W W W
 
 --L----------------|-------------------|-------------------|
 -------------------|-------------------|-------------------|
 -------------------|-------------------|-------------------|
 -------------------|-------------------|-------------------|
 -------------------|-------------------|-------------------|
 -------------------|-------------------|-------------------|

W W 3x W
 
 |--------------------|--------------------||-------------------|
 |--------------------|--------------------||-------------------|
 |*-------------------|-------------------*||-------------------|
 |*-------------------|-------------------*||-------------------|
 |--------------------|--------------------||-------------------|
 |--------------------|--------------------||-------------------|

W W W 3x
 
 -------------------||--------------------|--------------------||
 -------------------||--------------------|--------------------||
 -------------------||*-------------------|-------------------*||
 -------------------||*-------------------|-------------------*||
 -------------------||--------------------|--------------------||
 -------------------||--------------------|--------------------||

W W W W
 
 -------------------|-------------------|-------------------|-------------------|
 -------------------|-------------------|-------------------|-------------------|
 -------------------|-------------------|-------------------|-------------------|
 -------------------|-------------------|-------------------|-------------------|
 -------------------|-------------------|-------------------|-------------------|
 -------------------|-------------------|-------------------|-------------------|

W W W W
 
 -------------------|-------------------|-------------------|-------------------|
 -------------------|-------------------|-------------------|-------------------|
 -------------------|-------------------|-------------------|-------------------|
 -------------------|-------------------|-------------------|-------------------|
 -------------------|-------------------|-------------------|-------------------|
 -------------------|-------------------|-------------------|-------------------|

W W W W
 
 -------------------|-------------------|-------------------|-------------------|
 -------------------|-------------------|-------------------|-------------------|
 -------------------|-------------------|-------------------|-------------------|
 -------------------|-------------------|-------------------|-------------------|
 -------------------|-------------------|-------------------|-------------------|
 -------------------|-------------------|-------------------|-------------------|

W W W W
 
 -------------------|-------------------|-------------------|-------------------|
 -------------------|-------------------|-------------------|-------------------|
 -------------------|-------------------|-------------------|-------------------|
 -------------------|-------------------|-------------------|-------------------|
 -------------------|-------------------|-------------------|-------------------|
 -------------------|-------------------|-------------------|-------------------|

W W W W
 
 -------------------|-------------------|-------------------|-------------------|
 -------------------|-------------------|-------------------|-------------------|
 -------------------|-------------------|-------------------|-------------------|
 -------------------|-------------------|-------------------|-------------------|
 -------------------|-------------------|-------------------|-------------------|
 -------------------|-------------------|-------------------|-------------------|

W W H. E E
 
 -------------------|-------------------|----------------------|
 -------------------|-------------------|----------------------|
 -------------------|-------------------|----------------------|
 -------------------|-------------------|------------------3s--|
 -------------------|-------------------|----------------------|
 -------------------|-------------------|----------------------|

Wah
E E E E E Q. E E E E E E E E W
 
 -------------------------|--10--8------------------1---|--L----------------|
 -------------------------|---------10--8--6--------3---|--L----------------|
 --------4-----7--5~------|----------------------7--3---|--L----------------|
 --4--7-----7-------------|-------------------7-----1---|--L----------------|
 -------------------------|-------------------------1---|-------------------|
 -------------------------|-----------------------------|-------------------|

W H H
 
 --3----------------|--------------------------|
 --5----------------|--15b~--------15b~--------|
 --5----------------|--------------------------|
 --5----------------|--------------------------|
 --3----------------|--------------------------|
 -------------------|--------------------------|

Q E. S S S S S S S S S
 
 -------------12-------------------------|
 --L----15b------15-12----15----12-------|
 ----------------------14----14----14-12-|
 ----------------------------------------|
 ----------------------------------------|
 ----------------------------------------|

S S S S S S S S S S S S S S S S H H
 
 --------------------------------------------------|----------------------|
 --15-12----12-------------------------------------|----------------------|
 --------14----14-12-14-12----12-------------------|----------------------|
 --------------------------14----14-12-14-12-------|----------------------|
 --------------------------------------------14-12-|--12b-----------------|
 --------------------------------------------------|----------------------|

E E S S S S E E S S S S
 
 ------------------------------------------|
 ------------------------------------------|
 ---------------------------------12-------|
 --------------------------12--14----14-12-|
 ------10--12-14-12-10-14------------------|
 --12--------------------------------------|

E E S S S S E E S S S S H Q. E
 
 ---------------------------------12-------|--15b--------15b------15b--|
 -------------12-----------12--15----15-12-|---------------------------|
 ------12--14----14-12-14------------------|---------------------------|
 --14--------------------------------------|---------------------------|
 ------------------------------------------|---------------------------|
 ------------------------------------------|---------------------------|

W E S S S S S S S S S S S S S S
 
 --15~----------------|-------15-12-------12----------------------------|
 ---------------------|--15b--------15-12----15-12----15-12-------12----|
 ---------------------|----------------------------14-------14-12----14-|
 ---------------------|-------------------------------------------------|
 ---------------------|-------------------------------------------------|
 ---------------------|-------------------------------------------------|

S S S S S S S S S S S S S S S S
 
 --------------------------------------------------|
 --------------------------------------------------|
 --12----14-12-------12----------------------------|
 -----14-------14-12----14-12----14-12-------12----|
 -----------------------------14-------14-12----14-|
 --------------------------------------------------|

S S S S S S S S S S S S S S S S
 
 --------------------------------------------------|
 -----------------------------12-------12-15-12-15-|
 -----------------12----12-14----12-14-------------|
 -----------12-14----14----------------------------|
 --12----14----------------------------------------|
 -----15-------------------------------------------|

S S S S S S S S S S S S S S S S H Q E E
 
 --------------------------------------------------|--17b--------17b----15--17--|
 --------12-15-------12-15-------12-15-------12-15-|----------------------------|
 --12-14-------12-14-------12-14-------12-14-------|----------------------------|
 --------------------------------------------------|----------------------------|
 --------------------------------------------------|----------------------------|
 --------------------------------------------------|----------------------------|

H Q Q H Q Q W
 
 ------------------20b----|---L--------20b----20b----|--20b~----------------|
 --17~--------------------|--------------------------|----------------------|
 -------------------------|--------------------------|----------------------|
 -------------------------|--------------------------|----------------------|
 -------------------------|--------------------------|----------------------|
 -------------------------|--------------------------|----------------------|
 |---3---| 

Q. E E Q E E E E H. W
 
 ----------------------------|-----------------------------|-------------------|
 --------------12--14----15--|--14--15--14--12~------------|-------------------|
 --12------14----------------|-----------------------------|-------------------|
 ----------------------------|-----------------------------|-------------------|
 ----------------------------|-----------------------------|-------------------|
 ----------------------------|-----------------------------|-------------------|

W Q. E E Q E
 
 -------------------|----------------------------|
 -------------------|--------------12--14----15--|
 -------------------|--12------14----------------|
 -------------------|----------------------------|
 -------------------|----------------------------|
 -------------------|----------------------------|
 |---3---| 

E E E E. E. E. E. H H
 
 --------------------15-----------------|--------------------|
 --14--15--14--12~--------15---15g17~---|--L-----------------|
 ---------------------------------------|--------------------|
 ---------------------------------------|--------------------|
 ---------------------------------------|--------------------|
 ---------------------------------------|--------------------|
 |---3---| 

W Q. E E Q E E E E H.
 
 -------------------|----------------------------|-----------------------------|
 -------------------|--------------12--14----15--|--14--15--14--12~------------|
 -------------------|--12------14----------------|-----------------------------|
 -------------------|----------------------------|-----------------------------|
 -------------------|----------------------------|-----------------------------|
 -------------------|----------------------------|-----------------------------|

W W Q. E E Q E
 
 -------------------|-------------------|----------------------------|
 -------------------|-------------------|--------------12--14----15--|
 -------------------|-------------------|--12------14----------------|
 -------------------|-------------------|----------------------------|
 -------------------|-------------------|----------------------------|
 -------------------|-------------------|----------------------------|
 |---3---| 

E E E E. E. E. E. H H
 
 --------------------15-----------------|--------------------|
 --14--15--14--12~--------15---15g17~---|--L-----------------|
 ---------------------------------------|--------------------|
 ---------------------------------------|--------------------|
 ---------------------------------------|--------------------|
 ---------------------------------------|--------------------|

W
 
 -------------------||
 -------------------||
 -------------------||
 -------------------||
 -------------------||
 -------------------||

___________________________________________________________________
___________________________________________________________________
*******************************************************************
Guitar 2
[C5]W [A5]W [G5]W
 
 E||-------------------|-------------------|-------------------|
 B||-------------------|-------------------|-------------------|
 G||-------------------|-------------------|-------------------|
 D||--5----------------|-------------------|-------------------|
 A||--3----------------|--7----------------|--5----------------|
 E||-------------------|--5----------------|--3----------------|

[F5]W [E5]W [D5]W [Bb5]W
 
 -------------------|-------------------|-------------------|-------------------|
 -------------------|-------------------|-------------------|-------------------|
 -------------------|-------------------|-------------------|-------------------|
 -------------------|-------------------|--7----------------|--3----------------|
 --3----------------|--2----------------|--5----------------|--1----------------|
 --1----------------|--0----------------|-------------------|-------------------|

[A5]W W W W
 
 -------------------|-------------------|-------------------|-------------------|
 -------------------|-------------------|-------------------|-------------------|
 -------------------|-------------------|-------------------|-------------------|
 --2----------------|--L----------------|--L----------------|-------------------|
 --0----------------|--L----------------|--L----------------|-------------------|
 -------------------|-------------------|-------------------|-------------------|

E E E E Q E E E E E E E Q. 3x
 
 |---------------------------|--------------------------||
 |---------------------------|--------------------------||
 |*--------------------------|-------------------------*||
 |*--7--7--7--7--7-----------|--------------0----------*||
 |---5--5--5--5--5-----------|-----0--2--0-----3~-------||
 |-----------------------1s--|--2-----------------------||

E E E E E E E E W E E E E Q E E
 
 --------------------------|-------------------||---------------------------|
 --------------------------|-------------------||---------------------------|
 --7--5--------------------|-------------------||*--------------------------|
 --------7--5--3--------5--|--L----------------||*--7--7--7--7--7-----------|
 --------------------5--3--|--L----------------||---5--5--5--5--5-----------|
 -----------------5--------|-------------------||-----------------------1s--|

E E E E E Q. 3x E Q. E Q. E Q. E Q.
 
 --------------------------||----------------------|----------------------|
 --------------------------||----------------------|----------------------|
 -------------------------*||----------------------|----------------------|
 --------------0----------*||----------------------|----------------------|
 -----0--2--0-----3~-------||--5---------5---------|--5------------3------|
 --2-----------------------||-----2---------3------|-----4------5---------|

E E E Q E E E E E E Q E E E E E E E E E E E
 
 -------------------------|-------------------------|--------------------------|
 -------------------------|-------------------------|--------------------------|
 -------------------------|-------------------------|--------------------------|
 -------------------------|-------------------------|--------------------------|
 --5--5--5-------5-----5--|--L--5--5-------5-----7--|--L--7--7-----------------|
 --3--3--3-------3-----2--|--L--2--2-------2-----5--|--L--5--5-----5--3--2--0--|

E E E E E E E E E E E Q E E E E E E Q E E E
 
 --------------------------|-------------------------|-------------------------|
 --------------------------|-------------------------|-------------------------|
 --------------------------|-------------------------|-------------------------|
 --------------2-----------|-------------------------|-------------------------|
 --------------------------|-----5--5-------5-----5--|--L--5--5-------5-----7--|
 --L--0--2--3-----0--2--3--|--L--3--3-------3-----2--|--L--2--2-------2-----5--|

E E E E H H. E E Q E Q E E E
 
 -----------------------|---------------------|------------------------|
 -----------------------|---------------------|------------------------|
 -----------------------|---------------------|------------------------|
 -----------------------|---------------------|------------------------|
 --L--7--7--7--7--------|--L------------------|--5----5-------5-----5--|
 --L--5--5--5--5--------|--L------------0--2--|--3----3-------3-----2--|

E E E Q E E E E E E E E E E E E E E E E E E E
 
 -------------------------|--------------------------|--------------------------|
 -------------------------|--------------------------|--------------------------|
 -------------------------|--------------------------|--------------------------|
 -------------------------|--------------------------|--------------2-----------|
 --L--5--5-------5-----7--|--L--7--7-----------------|--------------------------|
 --L--2--2-------2-----5--|--L--5--5-----5--3--2--0--|--L--0--2--3-----0--2--3--|

H. Q E E E E E E Q E E Q E E Q
 
 --------------------|-------------------------|------------------------|
 --------------------|-------------------------|------------------------|
 --------------------|-------------------------|------------------------|
 --------------------|-----------2-------------|------------------------|
 --------------------|-------------------------|--------2----2--4--5----|
 --L------------0----|--0--2--3-----0--2--3----|--3--5------------------|

H. E E E E E E E Q.
 
 ----------------------|-------------------------|
 ----------------------|-------------------------|
 ----------------------|-------------------------|
 ----------------------|--------------0----------|
 --L-------------------|-----0--2--0-----3~------|
 ------------------1s--|--2----------------------|

E E E E E E E E W
 
 -------------------------------------------|-------------------|
 -------------------------------------------|-------------------|
 --7-------------------5--------------------|-------------------|
 -------------------------7--5--3--------5--|--L----------------|
 -------------------------------------5--3--|--L----------------|
 ----------------------------------5--------|-------------------|

Solo
W H. E E E E E E E Q.
 
 -------------------|----------------------|-------------------------|
 -------------------|----------------------|-------------------------|
 -------------------|----------------------|-------------------------|
 -------------------|----------------------|--------------0----------|
 -------------------|----------------------|-----0--2--0-----3~------|
 -------------------|------------------1s--|--2----------------------|

repeat once from 12
E E E E E E E E W W
 
 --------------------------|----------------------|-------------------|
 --------------------------|----------------------|-------------------|
 --7--5-----------------5--|--L-------------------|--7----------------|
 --------7--5--3--------5--|--L-------------------|--7----------------|
 --------------------5--3--|--L-------------------|--5----------------|
 -----------------5--------|----------------------|-------------------|

E E E Q E E E E E E Q E E E E E E Q E E E
 
 -------------------------|-------------------------|-------------------------|
 -------------------------|-------------------------|-------------------------|
 -------------------------|-------------------------|-------------------------|
 --9--9--9-------9-----9--|--7--7--7-------7-----7--|--4--4--4-------4-----4--|
 --7--7--7-------7-----7--|--5--5--5-------5-----5--|--2--2--2-------2-----2--|
 -------------------------|-------------------------|-------------------------|

E E E Q E E E E E E Q E E E E E E Q E E E
 
 -------------------------|-------------------------|-------------------------|
 -------------------------|-------------------------|-------------------------|
 -------------------------|-------------------------|-------------------------|
 --2--2--2-------------9--|--L--9--9-------9-----9--|--7--7--7-------7-----7--|
 --0--0--0-------------7--|--L--7--7-------7-----7--|--5--5--5-------5-----5--|
 ----------------3--0-----|-------------------------|-------------------------|

E E E Q E E E E E E Q E E E E E E Q E E E
 
 -------------------------|-------------------------|-------------------------|
 -------------------------|-------------------------|-------------------------|
 -------------------------|-------------------------|-------------------------|
 --4--4--4-------4-----4--|--2--2--2-------------9--|--L--9--9-------9-----9--|
 --2--2--2-------2-----2--|--0--0--0-------------7--|--L--7--7-------7-----7--|
 -------------------------|----------------3--0-----|-------------------------|

E E E Q E E E E E E Q E E E E E E Q E E E
 
 -------------------------|-------------------------|-------------------------|
 -------------------------|-------------------------|-------------------------|
 -------------------------|-------------------------|-------------------------|
 --7--7--7-------7-----7--|--4--4--4-------4-----4--|--2--2--2-------------9--|
 --5--5--5-------5-----5--|--2--2--2-------2-----2--|--0--0--0-------------7--|
 -------------------------|-------------------------|----------------3--0-----|

E E E Q E E E E E E Q. E E E E E E E E E E
 
 -------------------------|------------------------|----------------------------|
 -------------------------|------------------------|---------3------------5-----|
 -------------------------|------------------------|------------4------------5--|
 -----9--9-------9-----9--|--7--7--7---------------|--4s--5--------5s--7--------|
 --L--7--7-------7-----7--|--5--5--5---------------|---------5------------7-----|
 -------------------------|------------------3--0--|--2s--3-----7--3s--5-----8--|

E E E Q. Q E E E Q E E E E E E Q E E E
 
 --------------------------|-------------------------|-------------------------|
 ------------12~-----------|-------------------------|-------------------------|
 ---------7----------------|-------------------------|-------------------------|
 --7s--9------9------------|--9--9--9-------9-----9--|--7--7--7-------7-----7--|
 ---------5----------------|--7--7--7-------7-----7--|--5--5--5-------5-----5--|
 --5s--7-------------------|-------------------------|-------------------------|

E E E Q E E E E E E Q E E E E E E Q E E E
 
 -------------------------|-------------------------|-------------------------|
 -------------------------|-------------------------|-------------------------|
 -------------------------|-------------------------|-------------------------|
 --4--4--4-------4-----4--|--2--2--2-------------9--|--L--9--9-------9-----9--|
 --2--2--2-------2-----2--|--0--0--0-------------7--|--L--7--7-------7-----7--|
 -------------------------|----------------3--0-----|-------------------------|

E E E Q E E E E E E Q E E E E E E Q E E E
 
 -------------------------|-------------------------|-------------------------|
 -------------------------|-------------------------|-------------------------|
 -------------------------|-------------------------|-------------------------|
 --7--7--7-------7-----7--|--4--4--4-------4-----4--|--2--2--2-------------9--|
 --5--5--5-------5-----5--|--2--2--2-------2-----2--|--0--0--0-------------7--|
 -------------------------|-------------------------|----------------3--0-----|

E E E Q E E E E E E Q E E E E E E Q E E E
 
 -------------------------|-------------------------|-------------------------|
 -------------------------|-------------------------|-------------------------|
 -------------------------|-------------------------|-------------------------|
 --L--9--9-------9-----9--|--7--7--7-------7-----7--|--4--4--4-------4-----4--|
 --L--7--7-------7-----7--|--5--5--5-------5-----5--|--2--2--2-------2-----2--|
 -------------------------|-------------------------|-------------------------|

E E E Q E E E E E E Q E E E E E E Q. E E
 
 -------------------------|-------------------------|------------------------|
 -------------------------|-------------------------|------------------------|
 -------------------------|-------------------------|------------------------|
 --2--2--2-------------9--|-----9--9-------9-----9--|--7--7--7---------------|
 --0--0--0-------------7--|--L--7--7-------7-----7--|--5--5--5---------------|
 ----------------3--0-----|-------------------------|------------------3--0--|

E E E E E E E E E E E Q. Q
 
 ----------------------------|--------------------------||
 ---------3------------5-----|------------12~-----------||
 ------------4------------5--|---------7----------------||
 --4s--5--------5s--7--------|--7s--9------9------------||
 ---------5------------7-----|---------5----------------||
 --2s--3-----7--3s--5-----8--|--5s--7-------------------||

Duration Legend
 
 ---------------

W - whole
H - half
Q - quarter
E - 8th
S - 16th
T - 32nd
X - 64th
. - note dotted
|-n-| - n-tuplets
Tablature Legend
 
 ----------------

L - tied note
x - dead note
g - grace note
(n) - ghost note
> - accentuded note
NH - natural harmonic
AH - artificial harmonic
TH - tapped harmonic
SH - semi harmonic
PH - pitch harmonic
h - hammer on
p - pull off
b - bend
br - bendRelease
pb - preBend
pbr - preBendRelease
brb - bendReleaseBend
\n/ - tremolo bar dip
\n - tremolo bar dive
-/n - tremolo bar Release up
/n\ - tremolo bar inverted dip
/n - tremolo bar return
-\n - tremolo bar Release down
S - shift slide
s - legato slide
/ - slide into from below or out of upwards
\ - slide into from above or out of downwards
~ - vibrato
W - wide vibrato
tr - trill
TP - tremolo picking
T - tapping
S - slap
P - pop
< - fade in
^ - brush up
v - brush down

Important: The song above is NOT stored on the Chordie server. The original song is hosted at www.guitaretab.com. Chordie works as a search engine and provides on-the-fly formatting. Chordie does not index songs against artists'/composers' will. To remove this song please click here.

Text color:
Chord color:
Chord grids: 
Font size:    
Page size: 

A5 Bb5 C5 D5 E5 F5 G5
Rate #3 of 3 versions

Login - add to songbook

SHARE PAGE  



You need to log in to post comments