Guitar Tabs, Chords and Lyrics
Login is temporarily disabled for some users. Do not panic. Will be back in an hour or two. DO NOT REREGISTER!!


That Kind of Woman  Gary Moore

Still Got The Blues (1990)
By: Rafael Glezer - Brazil
Intro - Both Guitars
intro (guitar 1):
 
 E|------------------------------------------------------------|
 B|------------------------------------------------------------|
 G|------------------------------------------------------------|
 D|---------------------------------------5--------------------|
 A|-----------7-------------------------------7----------------|
 E|--0--3p2-0-------------------0--3p2-0-----------------------|

intro (guitar 2):
 
 E|----------------5-5-5--4-------------------------5-5-5-4----|
 B|----------------5-5-5--5-------------------------5-5-5-5----|
 G|----------------4-4-4--4-------------------------4-4-4-4----|
 D|------------------------------------------------------------|
 A|------------------------------------------------------------|
 E|------------------------------------------------------------|

Verse
 
 E|-----4-5-5-5--4--------3-3-3-3-------------2------|
 B|-----5-5-5-5--5--------5-6-6-5-------3-----4------|
 G|-----4-4-4-4--4--------5-5-5-5-------4-----4------|
 D|-------------------------------------5------------|
 A|--------------------------------------------------|
 E|--------------------------------------------------|

She's that kind of woman
No doubt about how she feels
She's holding promises
Her eyes won't tell
her lips are sealed.
A[B]nd I like her like th[E]at.
S[B]he's kind of cr[E]azy.
I[E] think I know what I'm looking for.
T[A]hat kind of woman.
I[E] think I know what I'm looking for.
T[A]hat kind of woman.
(repeat)
She's got [B]to look so cool, you know what I mean.
Got the wi[E]ckedest smile that I've ever seen.
I crashed [D]my heart on the side of the street
that she o[A]nce stood on.
She's that kind of woman.

Important: The song above is NOT stored on the Chordie server. The original song is hosted at www.guitaretab.com. Chordie works as a search engine and provides on-the-fly formatting. Chordie does not index songs against artists'/composers' will. To remove this song please click here.

Text color:
Chord color:
Chord grids: 
Font size:    
Page size: 

A B D E
Rate #2 of 3 versions

Login - add to songbook

SHARE PAGE  




You need to log in to post comments