Guitar Tabs, Chords and Lyrics
Major upgrade!! After one year development the new version of Chordie is now online! Please give feedback.


Tonight, Tonight, Tonight  Genesis

Song: Tonight Tonight Tonight
Artist: Genesis
Intro chords:
[Bb] [Am]  
Opening riff transcribed for guitar:
 
 E|----13-10-13------13-10-13----13-10-13------13-10-13--|
 B|-11----------(11)----------11----------(11)-----------|
 G|------------------------------------------------------|
 D|------------------------------------------------------|
 A|------------------------------------------------------|
 E|------------------------------------------------------|
 E|----13-10-13------13-10-13----13-10-13------13-10-13--|
 B|-10----------(10)----------10----------(10)-----------|
 G|------------------------------------------------------|
 D|------------------------------------------------------|
 A|------------------------------------------------------|
 E|------------------------------------------------------|

VERSE:
[Bb] I'm coming down, coming down like a monkey,[Am] but it's alright
[Bb] Like a load on your back that you can't see[Am], ooh but it's alright
[Bb] Try to shake it loose, cut it free, just let it [C]go, get it away from me.
[D]Oooohhhhh
CHORUS:
Cos to[Dm7]night, tonight, tonight - oh-[G]hoh, I'm gonna make it [Dm7]right
Tonight, tonight, tonight - oh-[G]hoh.
VERSE
CHORUS
BRIDGE 1:
[Gm] I got some money in my [C]pocket, about ready to [Gm]burn
I don't remember where I [C]got it, I gotta get it to [F]you
[Gm] So please answer the [C]phone, cos I keep [Gm]calling, but you're never [C]home
What am I gonna [D]do
BRIDGE 2:
[Bb]You keep [Am]telling me I've got e[F]verything[Dm], you say I've got [C]everything I
[G]want
[Bb]You keep [Am]telling me you're gonna [F]help me[Dm], you're gonna h[C]elp me, but you
[G]don't
But [Bb]now [Am]I'm [F]in [Dm]too d[G]eep
You see it's got me[Bb] so [Am]that I [F]just [Dm]can't [Csus4]sleep
Oh get me [C]out of here[Csus4], please get me [C]out of here
[Csus4] Just help me I'll do [C]anything, any[Csus4]thing
If you'll just [C]help me get out of [Dm7]here.
CHORUS
Chords:
[Dm7] [Csus4]  
 
 E|--5-----3-----|
 B|--6-----6-----|
 G|--5-----5-----|
 D|--7-----5-----|
 A|--5-----3-----|
 E|--X-----X-----|

Tabbed by Falldrive

Important: The song above is NOT stored on the Chordie server. The original song is hosted at www.guitaretab.com. Chordie works as a search engine and provides on-the-fly formatting. Chordie does not index songs against artists'/composers' will. To remove this song please click here.

Text color:
Chord color:
Chord grids: 
Font size:    
Page size: 

Am Bb C Csus4 D Dm Dm7 F G Gm
Rate #1 of 3 versions

Login - add to songbook

SHARE PAGE  



You need to log in to post comments