Guitar Tabs, Chords and Lyrics
Server problems seems to be fixed. Chordie has been experiencing problems with songs disappearing. These issues now seems to be fixed, but still verifying the fix. If you find anything strange, please email admin@chordie.com.


Can'Utility and the Coastliners  Genesis

 
 -----------------------------------------------------------------------

Can-Utility and the coastliners - Genesis
 
 -----------------------------------------------------------------------

Tabbed by: Ziyon Amram
Email: Ziyonamr@Netvision.net.il
Here is a beautiful Genesis piece taken from the album ?Foxtrot?, dedicated to legendary
King Canute (hence the ?Can-Utility?).
Likewise other Genesis tracks from that era (e.g. The Cinema Show, The Musical Box) this
is also composed of a basic song followed by unrelated instrumental filler before a
closing section.
The transcription below relates to the basic song, written by the band?s guitarist Steve
Originally it?s played on a 12-string which gives it a much greater depth, but a
will do too. Enjoy!
Tuning: Standard
Chord notes:
9 refers to ADD 9th (major or minor) rather than 7th AND 9th marked as 7/9
Intro:
(Note ? same playing appears also on the song bar marked with (*) )
B B9 B Eb B (pause)
 
 e|------7----9---7-----|--6-----------7-----------7--|--------------|
 B|----7----------------|--8--8----8------------7--7--|--------------|
 G|--8-----8----8----8--|-------8------------8--8--8--|--------------|
 D|--9--------9---9-----|--8-------8---9--9-----9--9--|--------------|
 A|---------------------|-----------------------------|--------------|
 E|---------------------|-----------------------------|--------------|

Part A:
[D]The scattered p[Bb6]ages of a bo[C]ok by th[B(addE)]e sea
Held by the [Em7]sand,[Em(addG)-Em-A7sus4-A7] washed by the waves
A s[D]hadow f[Asus4]orms cas[G6]t by a[A7sus4] cloud,
Ski[D]mming[Asus4] by as e[G6]yes of t[A7]he past, but the
B B9 B Eb B (*)
rising tide absorbs them effortlessly claiming.
[D]They told of o[G]ne who ti[Asus4-A]red of all singing,
[Bm]"Praise [A]him, p[Bm]raise hi[A]m."
[B]"We heed not [Em-Em7-Em6]flatterers," h[A7]e cried,
"[D]By our co[Asus4]mmand, w[G6]aters [A7sus4-A7]retreat,
S[D]how [Asus4]my power[G6], halt at[A7] my feet,"
[B]But the cause was lost, Now c[G6]old w[G]inds [A7sus4]blow.
Part B:
[D]Far from the n[F6]orth o[Bb]vercast [Bb6]ranks a[C]dvance
[D]Fear of the st[F6]orm acc[Bb6]using with rag[C]e [C7]and scorn.
[F]The waves s[Bb6]urround the sinking t[C7]hrone
Singing "[Dm7]Crown hi[C]m, cr[Dm7]own hi[C]m,"
"[D]Tho[Asus4]se who l[G6]ove o[A7sus4-A7]ur majesty
s[D]how [Asus4]themselves!" A[G6]ll bent thei[A7]r knees.
[Dm7]Ahhhhh?
Dm7 x 3 D7/9 Dm7 x 3 D7/9
 
 e|----------|-----3-6-|-1--1--1--0-----0-----|-1--1--1--0----0-----|...|
 B|-----3-6--|-5-6-----|-1--1--1----1-----1---|-1--1--1----1----1---|...|
 G|-3-5------|---------|-2--2--2------2-----2-|-2--2--2------2----2-|...|
 D|----------|---------|-0--0--0--------------|-0--0?0--------------|...|
 A|----------|---------|----------0-----------|----------0----------|...|
 E|----------|---------|----------------------|---------------------|...|

That?s actually the end of the main song. The 2-chord riff above turns into full chord
and continues through the Mellotron filler on to the next verse?
Dm7 x 3 D7/9
But he forced a smile even though
Dm7 x 3 D7/9 ? Dm7x3 D7/9
His hopes lay dashed where offerings fell (where they fell).
Here goes the organ solo then the guitar solo through the closing section?
[F]"Nothing[Fsus4] can my p[F]eace d[Bb6]estroy as [F]long as [Fsus4]no-one smi[F]les."[Bb6]
[F]More ope[Fsus4]ned ears [F]and op[Bb6]ened eyes,[F] and soo[Fsus4]n they dar[F]ed to laugh.
S[Bb]ee a little man with his face turn[C]ing red
Th[Bb]ough his story's often told you can t[C]ell he's dead.
===
That's it, hope you liked it. Send me your comments if you have any. Cheers!

Important: The song above is NOT stored on the Chordie server. The original song is hosted at www.guitaretab.com. Chordie works as a search engine and provides on-the-fly formatting. Chordie does not index songs against artists'/composers' will. To remove this song please click here.

Text color:
Chord color:
Chord grids: 
Font size:    
Page size: 

A A7 A7sus4 Asus4 Asus4-A B B(addE) Bb Bb6 Bm C C7 D Dm7 Em7 F F6 Fsus4 G G6
Rate #1 of 1 versions

Login - add to songbook

SHARE PAGE  



You need to log in to post comments