Guitar Tabs, Chords and Lyrics
Major upgrade!! After one year development the new version of Chordie is now online! Please give feedback.


Not Guilty  George Harrison

Intro (play twice):
[Em]  
 
 E--------------|
 B------------0-|
 G--------------|
 D-2/7--5/12----|
 A--------------|
 E--------------|

Not g[Am]uilty[Am/G] [Am/F#]
For [B7]getting in your w[Em]ay
While you're [B7]trying to steal the d[E]ay[E+] [E7]
Not g[Am]uilty[Am/G] [Am/F#]
And I'm[B7] not here for the [Em]rest
I'm not [B7]trying to steal your [Em]vest.[Em/D]
[E]I am not trying to be s[E7]mart
I only want what I can g[Am7/G]et
N.C Em7 Em6
I'm really sorry for your ageing head
But [Em]like you heard me [Em7+]said
Not gu[Am]ilt[Am/B]y.[Am/C] [Am/D]
[Em7] [Em6] [Em(13b)] [Em]  
 
 E--------------|---------------------------|
 B------------0-|---------------------------|
 G--------------|-----------TWICE-----------|
 D-2/7--5/12----|---------------------------|
 A--------------|---------------------------|
 E--------------|---------------------------|

Oo[Am]oh[Am/G] [Am/F#]
[B7] [Em] [B7] [Em]  
 
 E--------------------------------|
 B--5p4--7--5-----8-5/7--10--8----|
 G--------------------------------|
 D--------------------------------|
 A--------------------------------|
 E--------------------------------|

Not g[Am]uilty[Am/G] [Am/F#]
For be[B7]ing on your str[Em]eet
Getting under[B7]neath your fe[E]et[E+] [E7]
Not g[Am]uilty[Am/G] [Am/F#]
No use [B7]handing me a [Em]writ
While I'm [B7]trying to do my b[Em]it.[Em/D]
[E]I don't expect to take your h[E7]eart
I only want what I can g[Am7/G]et
N.C Em7 Em6
I'm really sorry that you're underfed
But l[Em]ike you heard me s[Em7+]aid
Not gu[Am]ilt[Am/B]y.[Am/C] [Am/D]
[Em7] [Em6] [Em(13b)] [Em]  
 
 E--------------|---------------------------|
 B------------0-|---------------------------|
 G--------------|-----------TWICE-----------|
 D-2/7--5/12----|---------------------------|
 A--------------|---------------------------|
 E--------------|---------------------------|

Oo[Am]oh[Am/G] [Am/F#]
[B7] [Em] [B7] [Em]  
 
 E--------------------------------|
 B--5p4--7--5-----8-5/7--10--8----|
 G--------------------------------|
 D--------------------------------|
 A--------------------------------|
 E--------------------------------|

Not g[Am]uilty[Am/G] [Am/F#]
For lo[B7]oking like a fr[Em]eak
Making fr[B7]iends with every S[E]ikh[E+] [E7]
Not g[Am]uilty[Am/G] [Am/F#]
For le[B7]ading you ast[Em]ray
On the r[B7]oad to Mandal[Em]ay.[Em/D]
[E]I won't upset the apple c[E7]art
I only want what I can g[Am7/G]et
N.C Em7 Em6
I'm really sorry that you've been misled
But l[Em]ike you heard me s[Em7+]aid
Not guilt[Am]y.
ENDING (repeat until fade):
[Em7] [Em6] [Em(13b)] [Em]  
 
 E--------------|---------------------------|
 B------------0-|---------------------------|
 G--------------|-----------ONCE------------|
 D-2/7--5/12----|---------------------------|
 A--------------|---------------------------|
 E--------------|---------------------------|

[Am] [Am/G] [Am/F#]  
Doubts or suggestions: burgul@gmail.com

Important: The song above is NOT stored on the Chordie server. The original song is hosted at www.guitaretab.com. Chordie works as a search engine and provides on-the-fly formatting. Chordie does not index songs against artists'/composers' will. To remove this song please click here.

Text color:
Chord color:
Chord grids: 
Font size:    
Page size: 

Am Am/B Am/C Am/D Am/F# Am7/G B7 E E+ E7 Em Em/D Em6 Em7 Em7+
Rate #2 of 6 versions

Jango Player

Login - add to songbook

SHARE PAGE  




You need to log in to post comments