Guitar Tabs, Chords and Lyrics
Major upgrade!! After one year development the new version of Chordie is now online! Please give feedback.


Here Comes the Moon  George Harrison

HERE COMES THE MOON - George Harrison
Intro:
G (6 MEASURES)
[G/]  
 
 e|--2p0---2p0----0--------/
 B|3-----1-----0h1---------/
 G|-----------------2s5-4--/
 D|-----------------------0/
 A|-----------------------2/
 E|-----------------------3/

[F#]Am7 [/] C7 -
Everybody's talking up a storm
[D7] Act like they don't noticed it
But [C7] here it is and here it [D7sus4] [/] comes
Chorus:
Here comes the [G] moon, the [Bm] moon,
the mo - [Em] on, the moon, the [G7] moon [C] [-] [A7] [/]
Here comes the [G] moon, the [Bm] moon,
the mo - [Em] on, the moon, the [G7] moon [C] [-] [A7] [/]
Ooh yeah
 
 e|--2p0---2p0----0--------/
 B|3-----1-----0h1---------/
 G|-----------------2s5-4--/ G
 D|-----------------------0/
 A|-----------------------2/
 E|-----------------------3/

[F#]Am7 [/] C7 -
Impulse always quickens when it's full
[D7] As it turns my head around me
[C7] Yes it does and here it [D7sus4] [/] comes
Chorus:
Here comes the [G] moon, the [Bm] moon,
the mo - [Em] on, the moon, the [G7] moon [C] [-] [A7] [/]
Here comes the [G] moon, the [Bm] moon,
the mo - [Em] on, the moon, the [G7] moon [C] [-] [A7] [/]
Here comes the [G] moon, the [Bm] moon,
the mo - [Em] on, the moon, the [G7] moon [C] [-] [A7] [/]
Ooh yeah
 
 e|--2p0---2p0----0--------/
 B|3-----1-----0h1---------/
 G|-----------------2s5-4--/
 D|-----------------------0/
 A|-----------------------2/
 E|-----------------------3/

G (4 MEASURES)
God's gift I [Am7] see that's moving up [D7] there
into the [G] night [G]
Though dark [Am7] the mirror in the [D7] sky
reflects us our [G] light /
[F#]Am7 [/] C7 -
Looks like a little brother to the sun
[D7] Or mother to the stars at night
And [C7] here it is and here it [D7sus4] [/] comes
Chorus:
Here comes the [G] moon, the [Bm] moon,
the mo - [Em] on, the moon, the [G7] moon [C] [-] [A7] [/]
Here comes the [G] moon, the [Bm] moon,
the mo - [Em] on, the moon, the [G7] moon [C] [-] [A7] [/]
Ooh yeah
 
 e|--2p0---2p0----0--------/
 B|3-----1-----0h1---------/
 G|-----------------2s5-4--/
 D|-----------------------0/
 A|-----------------------2/
 E|-----------------------3/

G (2 MEASURES)
Am7 C7 -
Breath is always taken whan it's new
[D7] Enhance upon the clouds around it
[C7] Yes it is and here it [D7sus4] [/] comes
Chorus:
Here comes the [G] moon, the [Bm] moon,
the mo - [Em] on, the moon, the [G7] moon [C] [-] [A7] [/]
Here comes the [G] moon, the [Bm] moon,
the mo - [Em] on, the moon, the [G7] moon [C] [-] [A7] [/]
Here comes the [G] moon, the [Bm] moon,
the mo - [Em] on, the moon, the [G7] moon [C] [-] [A7] [/]
Here comes the [G] moon, the [Bm] moon,
the mo - [Em] on, the moon, the [G7] moon [C] [-] [A7] [/]
 
 e|--2p0---2p0----0------/--2p0---2p0----0------/--2p0---2p0----0------/
 B|3-----1-----0h1-------/3-----1-----0h1-------/3-----1-----0h1-------/
 G|-----------------2s5-4/-----------------2s5-4/-----------------2s5-4/
 D|----------------------/----------------------/----------------------/
 A|----------------------/----------------------/----------------------/
 E|----------------------/----------------------/----------------------/

[G] Oeoehoe -[A7] hoeoe
 
 e|--2p0---2p0----0--------/
 B|3-----1-----0h1---------/
 G|-----------------2s5-4--/
 D|-----------------------0/
 A|-----------------------2/
 E|-----------------------3/

[G] Oeoehoe -[A7] hoeoe
 
 e|--2p0---2p0----0--------/
 B|3-----1-----0h1---------/
 G|-----------------2s5-4--/
 D|-----------------------0/
 A|-----------------------2/
 E|-----------------------3/

Outro:
[G] Hoeoe (REPEAT 24 TIMES, START FADING AT 12TH)
NOTE: this is the version on youtube: http://www.youtube.com/watch?v=x0KcgXQ2fl8
Which is a different version to the one on the album.
G 320003
Am7 x02013
C7 x31212
D7 xx0212
C7 x32310
D7sus4 xx0213
Bm x24432
Em 02200x
G7 320001
C x32010
A7 x02020
F# 2xxxxx

Important: The song above is NOT stored on the Chordie server. The original song is hosted at www.guitaretab.com. Chordie works as a search engine and provides on-the-fly formatting. Chordie does not index songs against artists'/composers' will. To remove this song please click here.

Text color:
Chord color:
Chord grids: 
Font size:    
Page size: 

A7 Am7 Bm C C7 D7 D7sus4 Em F# G G7
Rate #1 of 12 versions

Login - add to songbook

SHARE PAGE  




You need to log in to post comments