Guitar Tabs, Chords and Lyrics
Server problems seems to be fixed. Chordie has been experiencing problems with songs disappearing. These issues now seems to be fixed, but still verifying the fix. If you find anything strange, please email admin@chordie.com.


The Company Dime  The Get Up Kids

The Get Up Kids
The Company Dime
Something To Write Home About
1999 Vagrant Records
Submitted by: paramore_fans@yahoo.com
Key: G
Tuning: Standard EADGBe
Chords used:
G - 320033
D - xx0232
C - x32010 or C9 - x320033
Am - x02210
G/B - x2x003
Bm - x24432
D/F# - 2x023x
Intro: D
Verse 1:
[C] I watched it all come crashing [D]down
On the verge of a [Bm]world pro[C]found
Standing on unstable [D]ground
Adding [D/F#]insult to iro[C]ny
I think it?s really gonna happen this [D]time
Our calls on the [Bm]company [C]dime
Reluctance ties up the [D]line
With irres[D/F#]ponsibility
Interlude: G-D-C
Guitar 2:
 
 e|-----------3-2---3-2---3-2-3-2---3-2---3-2-5--3--2----|
 B|-----0-1-3-----3-----3---------3-----3--------------3-|
 G|-0-2--------------------------------------------------|
 D|------------------------------------------------------|
 A|------------------------------------------------------|
 E|------------------------------------------------------|

Verse 2:
[C] No matter save for a [D]friend
No argument [Bm]can a[C]mend
Irreplaceable but in the [D]end
One star [D/F#]player doesn?t save the [C]team
Now you?re open to at[D]tack
Our burden rests [Bm]on your [C]back
Replace, re-track[D]
Res[D/F#]ponsibility
Interlude 2: G-D-C--Am
Guitar 2:
 
 e|-----------3-2---3-2---3-2-3-2---3-2---3-2-5--3--2-----3--2-|
 B|-----0-1-3-----3-----3---------3-----3--------------3-------|
 G|-0-2--------------------------------------------------------|
 D|------------------------------------------------------------|
 A|------------------------------------------------------------|
 E|------------------------------------------------------------|

Chorus:
C(hold)
I?m still waiting for
G/B(hold) G
(I?m still waiting for)
[Am]You to get [G/B]over this
C(hold)
I?m still waiting for
G/B(hold) G
(I?m still waiting for)
[Am]You to get [G/B]over this
C(hold)
I?m still waiting for
G/B(hold) G
(I?m still waiting for)
[Am]You to get [G/B]over[C] this
Verse 3:
[C] Anonymous until the [D]ending
Spent a long long [Bm]time pre[C]tending
And a longer day spent ac[D]cepting
What the [D/F#]world ahead would s[C]tore
You only learn but not be[D]lieving
That the industry is [Bm]unfor[C]giving
Everything that you?ve been [D]giving
Isn?t [D/F#]what it was before
(Repeat Interlude 2 and Chorus)
Interlude 3: G-Am-C-D (x2)
Guitar 2:
 
 e|-----------------------|
 B|-1-0-1-0-1-0--|
 G|-----------------------|
 D|-----------------------| x8
 A|-----------------------|
 E|-----------------------|

Bridge:
[G] Replace[Am], re-track
[C] Replace[D], re-track
G Am C-D(hold)
Replace, re-track
(Repeat Chorus and Interlude 3 until fade out)

Important: The song above is NOT stored on the Chordie server. The original song is hosted at www.guitaretab.com. Chordie works as a search engine and provides on-the-fly formatting. Chordie does not index songs against artists'/composers' will. To remove this song please click here.

Text color:
Chord color:
Chord grids: 
Font size:    
Page size: 

Am Bm C D D/F# G G/B
Rate #1 of 5 versions

Login - add to songbook

SHARE PAGE  




You need to log in to post comments