Guitar Tabs, Chords and Lyrics
Server problems seems to be fixed. Chordie has been experiencing problems with songs disappearing. These issues now seems to be fixed, but still verifying the fix. If you find anything strange, please email admin@chordie.com.


Never Be Alone  The Get Up Kids

The Get Up Kids
Never Be Alone
Guilt Show
2004 Vagrant Records
Submitted by: paramore_fans@yahoo.com
Key: Bb
Tuning: Standard EADGBe
Chords used:
Bb - x13331 or 688766
[G#] [-] [466544]  
[Gm] [-] [355333]  
[F]Eb[-] - [133211]x68886
Cm - x35543
D - xx0232
[F#] [-] [244322]  
Intro: Drumbeats then
 
 Bb-G#-Gm--Eb--F--Bb-G#-Gm--Eb--F#

Guitar 2:
 
 e|-----------------------------------------------|
 B|------------------1----4--4-3-3-1------------1-|
 G|---------------3----3-------------3--2--2--3---|
 D|-3--1--0-1--3----------------------------------|
 A|-----------------------------------------------|
 E|-----------------------------------------------|

then
 
 e|-------------------------------------------------|
 B|------------------1----4--4-3-3-1----2-2-1-1---1-|
 G|---------------3----3-------------3----------3---|
 D|-3--1--0-1--3------------------------------------|
 A|-------------------------------------------------|
 E|-------------------------------------------------|

Verse 1:
[Bb]Never love a[G#]nyone [Gm]else
Is [Eb]promise you made me your[F]self
There's a [Bb]box with his ring [G#]on the [Gm]shelf
And it's [Eb]taaar--[F#]nished
The [Bb]burden of liars [G#]and [Gm]thieves
Is the [Eb]baggage that you brought over[F]seas
No [Bb]matter if you [G#]beg and you [Gm]plead
This is [Eb]over[F#]
Chorus:
[D]Whooooa[Eb]aa
[D]That's just the way it would [Eb]go
No [D]matter how the dice didn't [Eb]roll
You'll never [F]be a[Bb]lone
 
 Interlude: Bb-G#-Gm--Eb--F#

Verse 2:
A [Bb]promise, A [G#]vow, A commit[Gm]ment[Cm]
The [Eb]bottle won't help you [F]forget this
And I'm [Bb]swearing with [G#]God as my [Gm]witness
This is [Eb]sorry[F#]
(Repeat Chorus)
Bridge:
[Bb]Wonde[G#]ring[Gm] is it [Eb]anything that [D]he did?
What's the [Eb]reason you're ruining [F]this?
Never be a[Bb]lone
(Repeat x3)
Sing this in as 2nd voice while "Wondering..."
Words on pages won't replace this, never be alone
What's the reason you're ruining this, never be alone
Wondering is it anything that he did?
What's the reason you're ruining this?
Never be alone
Words on pages won't replace this, never be alone
What's the reason you're ruining this, never be alone
(Repeat x2)

Important: The song above is NOT stored on the Chordie server. The original song is hosted at www.guitaretab.com. Chordie works as a search engine and provides on-the-fly formatting. Chordie does not index songs against artists'/composers' will. To remove this song please click here.

Text color:
Chord color:
Chord grids: 
Font size:    
Page size: 

Bb Cm D Eb F F# G# Gm
Rate #1 of 4 versions

Login - add to songbook

SHARE PAGE  



You need to log in to post comments