Guitar Tabs, Chords and Lyrics
Major upgrade!! After one year development the new version of Chordie is now online! Please give feedback.


Radio baccano   Gianna Nannini

 
 1-----------------------------------------------------------------------------|
 2-----------------------------------------------------------------------------|
 3-----7-6 h 7-5-4------4------7-6-h-7-6-4-------------------------------------|
 4----------------7-4-7---7-----------------7-4-7-7-7--------------------------|
 5--------------------------------------------------7--------------------------|
 6-----------------------------------------------------------------------------|

 


 


 Intro:


 ?Hai ragione in prigione?


 


 Tutti : Fa # - Fa # - La Si 4 volte poi, di seguito solo: canto basso e batteria


 


 Non credi mai a quello che è vero


 Si- Mi-


 perchè è vero anche il contrario


 La Si-


 giorni di allarme e confusione


 Si- Mi-


 sono il mio pane quotidiano (piccolo riff 7° tasto 2° corda )


 la Si--


 piccole donne, i bimbi crescono


 Si- Mi-


 i giochi non ti sono mai bastati


 La Si-


 neanche le botte che gli hai dato


 Si- Mi-


 sotto la luna senza fiato (piccolo riff 7° tasto 2° corda.)


 LA Si-


 


 riff base della chitarra elettrica due volte giro: Si- Sol Re Si- Sol La %


 


 lo scriverò su tutti i muri (anche tastiera)


 Si- Mi-


 dio c'è con tutti gli altri nomi


 La si-


 sacre scritture dell'informazione


 Si- mi-


 scoppia la guerra del rumore (riff 8° tasto bend. 1 tono, 2° corda poi pent)


 La si-


 


 e faremo un gran baccano (riff base accompagna tutto il canto)


 si- sol re


 tu con la chitarra in mano


 si- sol re


 per un idolo ribelle


 si- sol re


 che ci scorre sulla pelle


 si- sol la


 


 hai ragione in prigione, hai ragione in prigione, hai ragione in prigione,


 Fa# Fa# La Si idem tre volte


 e la solidarietà fa bene (bicordi lievemente funky-suono crunch- parte alta manico)


 [si-]come la solitudine sui tram[mi-]


 la si-


 tra soldi lacrime e catrame


 [si-]mi godo questo mondo infame (rif[mi-]f 2° corda 17° taso).)


 la si-


 


 e faremo un gran baccano (riff base accompagna tutto il canto)


 si- sol re


 tu con la chitarra in mano


 si- sol re


 per un idolo ribelle


 si- sol re


 che ci scorre sulla pelle


 si- sol la


 


 "radio baccano", mondo cristiano(solo batteria basso e canto parlato e chit. stoppata)


 indù, buddista ebreo musulmano,


 fine del mondo segnale orario


 colonna sonora di questo scenario


 di guerra, un suono distorto, un urlo incazzato


 di chi non è morto, ma vive e si muove


 in mezzo ai palazzi, insieme ad altri


 cento, mille ragazzi


 "radio baccano" come un terremoto


 niente e nessuno che chiede il tuo voto


 niente più leader a guidare le masse


 musica dura che buca le casse


 mondo che gira "radio baccano"


 suono che scalda dal freddo che fa


 nelle apparenze si nascondono gabbie


 dentro allo stomaco la libertà (vocalizzo)


 hai ragione in prigione hai ragione in prigione hai ragione in prigione


 


 (parte assolo) Fa# - Fa# - Fa# - la si questo giro 3 volte


 


 e faremo un gran baccano (riff base - la chitarra accompagna la melodia)


 Si- Sol Re


 tu con la chitarra in mano


 Si- Sol Re


 nuovi idoli d'amore


 Si- Sol Re


 lasceremo un polverone


 Si- sol La


 "radio baccano", mondo cristiano (chitarra elettrica con wha)


 indù, buddista ebreo musulmano,


 fine del mondo passa parola


 dentro la mente fuori da scuola


 "radio baccano"


 


 ripete ? e faremo un gran baccano? come sopra.


 Poi per chiudere riff base una volta con accordo finale in La.


 


 Bicordi funky suono leggermente crunch


 


 

 
 1-----------------------------------------------------------------------------|
 2-15---14--15------17--15--17----14--15-----14----15---14---12----------------|
 3--16--14---16----16--14--16-----14---16----14-----16--14--11-----------------|
 4-----------------------------------------------------------------------------|
 5-----------------------------------------------------------------------------|
 6-----------------------------------------------------------------------------|


Important: The song above is NOT stored on the Chordie server. The original song is hosted at www.guitaretab.com. Chordie works as a search engine and provides on-the-fly formatting. Chordie does not index songs against artists'/composers' will. To remove this song please click here.

This song is displayed as text-only. Transposing and tuning is only available for chordpro-songs.
Rate #2 of 2 versions

Jango Player

Login - add to songbook

SHARE PAGE  




You need to log in to post comments