Guitar Tabs, Chords and Lyrics
Update 25:10. 13:00. Site is back up running again. Songbooks are recovered. Woring on getting search back up..


Once In A While  Gigolo Aunts

Subject: Once In Awhile (Gigolo Aunts)
I have to admit that I first heard this band a few days ago, I know, they
are great but unfortunately I didn't heard them till last saturday while I was
taking a shower. In Spain is very difficult getting to know this kind of bands
and, lucky me, the first song i heard was this one, "Once in Awhile". I can
recall myself in the shower trying to remember the lyrics so then I could find
out on the Internet the name of the band. Gigolo Aunts, I couldn't believe
my eyes :). Later I tryied to find some Tabs, but there only was a couple, I felt
very angry so I tryied to figure out this tab and, my dear friends, this is my
very first Tab in my whole life. My knowlege of music is very poor as well as my
guitar playing but, I tryied to do my best, I hope you like it. (I also hope you
can forgive my bad english).
TUNING: Standard
INTRO:
 
 E --------3-----------3---------------------------
 B -----5--------0--------------1--0-----------3---
 G --5--------0-----0-----0--2--------0-----4-----0 F F* x2
 D ------------------------------------------------
 A ------------------------------------------------
 E ------------------------------------------------

VERSE 1:
F* C G Am G F F*
I pressed my cheek to the cool tabletop
C G Am G F F**
And wished the dance playing down my spine would stop
The moon was [C]hanging [G]there [Am]in the [G]window [F]blue
CHORUS:
And [Em]once in a [F]while I wish that it was [G]true
Em F C G Am G F F**
Once in a while a little bit of broken heart could do
VERSE 2:
C G Am G F F*
I took a long drink tasting of tin
C G Am G F F**
And swallowed every conversation again
A distant [C]car [G]horn was [Am]trying [G]to break [F]through
CHORUS:
And [Em]once in a [F]while I wish that it was [G]true
[Em]Once in a [F]while I wish that it was [G]true
[Em]Once in a [F]while a little bit of broken heart could [Em]do
VERSE 3:
But [Am]like the rain it's gonna soak you [G]through
Past the [D]skin and the b[Em]one
To the [D]flight and the [C]flown
A# (let ring)
Soaking everything you own
 
 E --------3-----------3---------------------------
 B -----5--------0--------------1--0-----------3---
 G --5--------0-----0-----0--2--------0-----4-----0 x3 And then F
 D ------------------------------------------------
 A ------------------------------------------------
 E ------------------------------------------------

CHORUS:
And [Em]once in a [F]while I wish that it was [G]true
[Em]Once in a [F]while I wish that it was [G]you
[Em]Once in a [F]while a little bit of broken heart
[F]a little bit of broken heart
F C (Let ring)
a little bit of broken heart could do
 
 E --------3-----------3---------------------------
 B -----5--------0--------------1--0-----------3---
 G --5--------0-----0-----0--2--------0-----4-----0 X3
 D ------------------------------------------------
 A ------------------------------------------------
 E ------------------------------------------------
 E --------3-----------3-----------0---------------
 B -----5--------0--------------1--------------3---
 G --5--------0-----0-----0--2--------0--0--4-----0 C (Let Ring)
 D ------------------------------------------------
 A ------------------------------------------------
 E ------------------------------------------------

CHORDS LIST:
F: 133210
F*: 133200
F**: 133010
C: 032010
G: 320003
Am:002213
Em:022000
D: 000232
A#:012211
MARC ESTARRIOLA PRUJ└ 2002 BESAL┌
Any Comment About the TAB and corrections are welcome. Thank You.

Important: The song above is NOT stored on the Chordie server. The original song is hosted at www.guitaretab.com. Chordie works as a search engine and provides on-the-fly formatting. Chordie does not index songs against artists'/composers' will. To remove this song please click here.

Text color:
Chord color:
Chord grids: 
Font size:    
Page size: 

Am C D Em F G
Rate #1 of 2 versions

Login - add to songbook

SHARE PAGE  



You need to log in to post comments