Guitar Tabs, Chords and Lyrics
Major upgrade!! After one year development the new version of Chordie is now online! Please give feedback.


Bem, bem, Maria  Gipsy Kings

(Lyrics are uncertain)
Intro:
 
 7--7--7--------7--7--7--7--7---------|
 8--8--7--------8--8--7--7--7---------|
 9--9--7--------9--9--7--7--7---------|
 9--9--9--------9--9--7--7--7---------|
 7--7--7--------7--7--9--9--9---------|
 ------------------------7--7--7------|

[Em]No te vayas
Mujer m?a
T? no me dejas[D]
T? no te vayas[C]
Igual que mi [Am]chiquita[B7]
[Em]No te vayas
Mujer m?a
T? no me dejas[D]
T? no te vayas[C]
[D]Ya acerca ya l'abandono[G]
[G]Bem bem bem Mar?a[Am]
Te quiero bem bem be[Bm]m
[G]Bem bem bem Mar?a[Am]
Te adoro bem bem bem[Bm]
[C]Bem bem bem Mar?a[D]
Te quiero bem be[G]m[Em]
[C]Bem bem bem Mar?a[D]
Te quiero bem[Em]
 
 7--7--7--------7--7--7--------5--5--5----5--5--5----|
 8--8--7--------8--8--7--------5--5--5----5--5--5----|
 9--9--7--------9--9--7--------5--5--5----5--5--5----|
 9--9--9--------9--9--9--------7--7--5----7--7--5----|
 7--7--7--------7--7--7--------7--7--7----7--7--7----|
 ---------------------------------5--5--5----5--5--7-|
 --------------------------------------------------------------------------------

CHORDS:
Em: 022000 / x79987
D: x00232 / x5775
C: 332010 / 8 10 10 9 8 8
Am: x02210 / 577555
B7: x21202 / 7 9 7 8 10 7
G: 320003 / 355433
Bm: x24432 / 799777
(Music transcribed by Kelly Wing, MN, USA)

Important: The song above is NOT stored on the Chordie server. The original song is hosted at www.guitaretab.com. Chordie works as a search engine and provides on-the-fly formatting. Chordie does not index songs against artists'/composers' will. To remove this song please click here.

Text color:
Chord color:
Chord grids: 
Font size:    
Page size: 

Am B7 Bm C D Em G
Rate #1 of 4 versions

Login - add to songbook

SHARE PAGE  




You need to log in to post comments