Guitar Tabs, Chords and Lyrics
Login is temporarily disabled for some users. Do not panic. Will be back in an hour or two. DO NOT REREGISTER!!


Can't Speak French  Girls Aloud

Girls Aloud - Can't Speak French (Tangled Up)
Hi,
This is my first tab ever so forgive me if there are any mistakes or the layout isn't
good! I'm a massive Girls Aloud fan, and I think this is a really great song. It's pretty
as it just repeats itself, but it sounds great. As I said this is my first tab and I
it all out by ear so PLEASE correct me or send me any feedback/questions. I reckon the
can also be played as a C#m and it sounds basically the same. Enjoy!
Katie
Chords: C#m7 (4th fret)
F#m7 (7th fret)
A (0 fret)
C#sus2 (4th fret)
C#7 (4th fret)
Riff:
RIFF (Part 1)
 
 E|----------------7------------------------------------------------------|
 B|-7h9----9-9-7h9---10----10-10-9-10-7h9----9-7---7----------------------|
 G|----------------------------------------------9---6----4h6-4h6-4-------|
 D|-----------------------------------------------------------------------|
 A|-----------------------------------------------------------------------|
 E|-----------------------------------------------------------------------|

RIFF (Part 2)
 
 E|------------------------9----------------------------------------------|
 B|-7h9----9-7-9-9-9h10------12-10-12-9----7h9-7---7----------------------|
 G|----------------------------------------------9---6----4h6-4h6-4-------|
 D|-----------------------------------------------------------------------|
 A|-----------------------------------------------------------------------|
 E|-----------------------------------------------------------------------|

Tuning: standard
INTRO
[C#m7] [F#m7] [A] [C#sus2] [C#7] 
RIFF - JUST part 2
 
 E|------------------------9----------------------------------------------|
 B|-7h9----9-7-9-9-9h10------12-10-12-9----7h9-7---7----------------------|
 G|----------------------------------------------9---6----4h6-4h6-4-------|
 D|-----------------------------------------------------------------------|
 A|-----------------------------------------------------------------------|
 E|-----------------------------------------------------------------------|

VERSE 1
I [C#m7]wait underneath the covers
All [F#m7]night beside you
And w[A]ho could ever question any crying I[C#sus2] do[C#7]
My [C#m7]heavy heart is beating out a rhythm
All [F#m7]night beside me
And I f[A]all a little harder everytime that I[C#sus2] do[C#7]
PRE-CHORUS (with full riff - part 1 once followed by part 2 once)
[C#m7] Watch me living it up, you totally[F#m7]
Got me stuck in a rut, you're made for me[A]
How'm gonna step up, and say to you[C#sus2]
I get the feeling boy I [C#7]want you, want you[C#m7]
Now conversation is tough because you're totally[F#m7]
Walking round all the stuff you wanna say to me[A]
Words are never enough
Oh baby baby you [C#sus2]turn my dust to [C#7]gold
CHORUS (with full riff - part 1 once followed by part 2 once)
I can't s[C#m7]peak French
So I'll let the funky music do the t[F#m7]alking talking now, oh
I can't sp[A]eak French
So I'll let the funky music do the [C#sus2]talking, [C#7]oh oh oh
I can't s[C#m7]peak French
So I'll let the funky music do the t[F#m7]alking talking now, oh
I can't sp[A]eak French
So I'll let the funky music do the [C#sus2]talking, [C#7]oh oh oh
VERSE 2 (with full riff - part 1 once followed by part 2 once)
[C#m7] I gotta let you know[F#m7]
I wanna give in to my temptation[A]
And let my feelings show[C#sus2]
I gotta let you [C#7]know[C#m7]
I gotta let you know[F#m7]
I wanna give in to my temptation[A]
And let my feelings show[C#sus2]
I gotta let you [C#7]know
BRIDGE (full riff - chords only come in during part 2)
RIFF (Part 1)
 
 E|----------------7------------------------------------------------------|
 B|-7h9----9-9-7h9---10----10-10-9-10-7h9----9-7---7----------------------|
 G|----------------------------------------------9---6----4h6-4h6-4-------|
 D|-----------------------------------------------------------------------|
 A|-----------------------------------------------------------------------|
 E|-----------------------------------------------------------------------|

(Part 2)
[C#m7] [F#m7] [A] [C#sus2] [C#7]  
 
 E|------------------------9----------------------------------------------|
 B|-7h9----9-7-9-9-9h10------12-10-12-9----7h9-7---7----------------------|
 G|----------------------------------------------9---6----4h6-4h6-4-------|
 D|-----------------------------------------------------------------------|
 A|-----------------------------------------------------------------------|
 E|-----------------------------------------------------------------------|

CHORUS TO FADE (with full riff)

Important: The song above is NOT stored on the Chordie server. The original song is hosted at www.guitaretab.com. Chordie works as a search engine and provides on-the-fly formatting. Chordie does not index songs against artists'/composers' will. To remove this song please click here.

Text color:
Chord color:
Chord grids: 
Font size:    
Page size: 

A C#7 C#m7 C#sus2 F#m7
Rate #1 of 3 versions

Login - add to songbook

SHARE PAGE  




You need to log in to post comments