Guitar Tabs, Chords and Lyrics
Login is temporarily disabled for some users. Do not panic. Will be back in an hour or two. DO NOT REREGISTER!!


Rolling Back the Rivers in Time  Girls Aloud

This is a really easy song it only has two chords. Please comment. Thank u =)
Rolling Back the Rivers in Time
[A]I always admitted pity
cause i was getting [D]lonely
[D]Oh oh, I was lonely
a'baby without [A]you.
[A]I always had hid it,
pity needed you to [D]hold me.
[D]Oh boy, you should have known me,
I didn't know how [A]to.
MAIN RIFF
 
 E|-------------------------------------------------------------------------|
 B|-------------------------------------------------------------------------|
 G|-----------------1-1---1-------------------1-1---1-2-2-----1--2--4-4/6-4-|
 D|-2-2---2-4-4---4---------4-4-2-2---4-4---4-------------4-----------------|
 A|-------------------------------------------------------------------------|
 E|-------------------------------------------------------------------------|
 E|-------------------------------------------------------------------------|
 B|-------------------------------------------------------------------------|
 G|----4--2--1-----1--------------------------------------------------------|
 D|-------------4-----2----2-4-4---2~-2----2-4-4---2~-----------------------|
 A|--------------------h4--------------h4-----------------------------------|
 E|-------------------------------------------------------------------------|

PLAY TWICE x2
[A]Gone are the days of magic
[D]those times were cool.
[D]I tried to make love not hate.
What was [A]I to do?
[A]Oh, the beats were playing,
[D]we danced all night.
[D]We were kissing
till [A]dark turned to light.
(Chorus:)
MAIN RIFF at the same time as the chorus
[A]Ah-oooo
Rolling back the rivers in [D]time.
Can't wait. Got to see his face some[A]where.
[A]Ah-oooo
[A]Holding back the minutes gone [D]by.
[D]Someday, got to see his face oh [A]yeah.
[A]There's a feeling in my soul
that sets my heart a[D]live.
[D]I tell you there's a feeling in my soul
that tells me that you're all [A]mine.
[A]There's an arrow in my heart
just hit at seven[D]teen.
[D]I tell you there's a shadow in my heart
that tells of what could have [A]been.
(Chorus)
[A]Doesn't really matter
I felt nothing better at [D]all.
[D]Ho-hoo
[D]Sending him a letter
I know I won't regret it [A]all.
[A]Ho-hoo
[A]Doesn't really matter
[A]a miracle could happen for [D]sure.
[D]Ho-hoo
[D]I'd rather wait for ever
[D]baby never have it at [A]all.
(Chorus (x2))

Important: The song above is NOT stored on the Chordie server. The original song is hosted at www.guitaretab.com. Chordie works as a search engine and provides on-the-fly formatting. Chordie does not index songs against artists'/composers' will. To remove this song please click here.

Text color:
Chord color:
Chord grids: 
Font size:    
Page size: 

A D
Rate #1 of 2 versions

Login - add to songbook

SHARE PAGE  



You need to log in to post comments