Guitar Tabs, Chords and Lyrics
Server problems seems to be fixed. Chordie has been experiencing problems with songs disappearing. These issues now seems to be fixed, but still verifying the fix. If you find anything strange, please email admin@chordie.com.


All Day All Night  Girlschool

 
 -----------------------------------------------------------------------------

ALL DAY ALL NIGHT - Girlschool
 
 -----------------------------------------------------------------------------

Written by: K.McAuliffe/C.Bonacci/G.Weston-Jones/D.Dufort
Album: "Nightmare At Maple Cross" (1986, GWR Records)
Tabbed by: Anne Drury (zerofret)
Email: zerofret_ad@hotmail.com
Date: January 16, 2006
Notes:
-key of E - 4/4 time
-for measures 5 and 6 of the guitar solo, I'm not sure what's being done
there - I've tabbed it as palm muting, but it's something more than that.
(Cris never seemed to play that part live, either, so maybe there's some
studio effects or something happening there.)
INTRO:
[E5]  
 
 E ---|--------------|--------------|--------------------|---------------|
 B ---|--------------|--------------|--------------------|---------------|
 G ---|----7/9-9-----|----7/9-9-----|--------------------|-----7/9-------|
 D ---|----7/9-9-----|----7/9-9-----|--------------------|-----7/9-------|
 A ---|----5/7-7-----|----5/7-7-----|--------------------|-----5/7-------|
 E 3-0|=----------3-0|=----------3-0|=--0-3^q-0-3^q-0--0-|-3-0--------3-0|

Hey hey Hey
[E5]  
 
 E ------------------|--------------|--------------------|---------------|
 B ------------------|--------------|--------------------|---------------|
 G --------7/9-9-----|---7/9-9------|--------------------|---------------|
 D --------7/9-9-----|---7/9-9------|--------------------|-------0-2-----|
 A --------5/7-7-----|---5/7-7------|--------------------|---------------|
 E ==-------------3-0|=----------3-0|=--0-3^q-0-3^q-0--0-|-3-0-----------|

hey Hey hey | Hey!|
| |
| |
 
 |---------------|
 |^wr-3-------|
 |---------4-----|
 |---------------|
 |---------------|
 |---------------|

1ST VERSE:
[E5]  
 
 E -----------------|-----------------|----------------|-----------------|
 B -----------------|-----------------|----------------|-----------------|
 G -----------------|---------------7=|=--9--9---9-----|------7/9--------|
 D -2-2-2-2-2-2-2-2-|-2-2-2-2-2-2-2-7=|=--9--9---9-----|------7/9--------|
 A -2-2-2-2-2-2-2-2-|-2-2-2-2-2-2-2-5=|=--7--7---7-----|------5/7--------|
 E -0-0-0-0-0-0-0-0-|-0-0-0-0-0-0-0---|--------------0-|-3-0----------3-0|

Can't kick the habit
of these sleepless nights
[E5]  
 
 E -----------------|-----------------|----------------|-----------------|
 B -----------------|-----------------|----------------|-----------------|
 G -----------------|---------------7=|=--9--9---9-----|------7/9--------|
 D -2-2-2-2-2-2-2-2-|-2-2-2-2-2-2-2-7=|=--9--9---9-----|------7/9--------|
 A -2-2-2-2-2-2-2-2-|-2-2-2-2-2-2-2-5=|=--7--7---7-----|------5/7--------|
 E =0-0-0-0-0-0-0-0-|-0-0-0-0-0-0-0---|--------------0-|-3-0-------------|

Soon could be in
trouble, better put up a fight
[A] [D] [A] [D]  
 
 E -----------------|-----------------|-12-------------|-10--------------|
 B -10--------------|-12--------------|----------------|-10--------------|
 G -----------------|-----------------|----------------|-----------------|
 D -11--------------|-12--------------|-11-------------|-----------------|
 A -----------------|-----------------|----------------|-----------------|
 E -----------------|-----------------|----------------|--------------3-0|

Playing rough, can't get enough, Power play, can't walk away,a-
[E5]  
 
 E -----------------|-----------------|----------------|-----------------|
 B -----------------|-----------------|----------------|-----------------|
 G ----7/9-9--------|----7/9-9--------|----7/9-9-------|----7/9-9--------|
 D ----7/9-9--------|----7/9-9--------|----7/9-9-------|----7/9-9--------|
 A ----5/7-7--------|----5/7-7--------|----5/7-7-------|----5/7-7--------|
 E =-------------3-0|=-------------3-0|=------------3-0|=----------------|

way And I say
[G5] [A5] [C5] [B5]  
 
 E -----------------|-----------------|----------------|-----------------|
 B -----------------|-----------------|----------------|-----------------|
 G -----------------|-----------------|----------------|-----------------|
 D -5---------------|-7---------------|-10-------------|-9-9-9-----------|
 A -5---------------|-7---------------|-10-------------|-9-9-9-----------|
 E -3---------------|-5---------------|-8--------------|-7-7-7--------3-0|

Can't stop now
CHORUS:
[E5]  
 
 E ----------------|----------------|--------------------|---------------|
 B ----------------|----------------|--------------------|---------------|
 G ----7/9-9-------|----7/9-9-------|--------------------|-----7-9-------|
 D ----7/9-9-------|----7/9-9-------|--------------------|-----7-9-------| 2x
 A ----5/7-7-------|----5/7-7-------|--------------------|-----5-7-------|
 E =------------3-0|=------------3-0|=--0-3^q-0-3^q-0--0-|-3-0--------3-0|

All day All night, Well,all right
(All day!) (All night!)
2ND VERSE: (played same as 1st Verse, except for final 2 measures)
Can't stop me now, I know what I need
(don't kn. lyr.) is the only way to be for me (?)
Make my kill, but what a thrill
Mine all mine, never draw the line, no
[E5]  
 
 E ----------------|----------------|--------------------|---------------|
 B ----------------|----------------|--------------------|---------------|
 G ----7/9-9-------|----7/9-9-------|--------------------|-----7/9-------|
 D ----7/9-9-------|----7/9-9-------|--------------------|-----7/9-------|
 A ----5/7-7-------|----5/7-7-------|--------------------|-----5/7-------|
 E =------------3-0|=------------3-0|=--0-3^q-0-3^q-0--0-|-3-0--------3-0|

way And I say
Play CHORUS (1x)
GUITAR SOLO:
[G5]  
 
 E ---------------------------------------|------------------------------|
 B -------------15^q---------------15^q---|-15---------------------------|
 G -------------15^q---------------15^q---|-15------15--17^(19)-----2^(4)|
 D -17-17-17-17--------17-17-17-17--------|-----17-----------------------|
 A ---------------------------------------|------------------------------|
 E ---------------------------------------|------------------------------|
 pm----------| pm----------|

[E5]  
 
 E --0-------------------------|----------------------------|
 B ----3-0---------------------|----------------------------|
 G =---------------------|----------------------------|
 D ----------------------|-----0--2--2----------------|
 A -------------------------|-/2-------------------------|
 E ----------------------------|----------------------------|

[G5]  
 
 E -------------------------------------------------|
 B -------------------------------------------------|
 G -------------------------------------------------|
 D -17-17-17-17-16-16-16-16-15-15-15-15-16-16-16-16-|
 A -------------------------------------------------|
 E -------------------------------------------------|

pm (entire measure)
[G5]  
 
 E -------------------------------------------------|
 B -------------------------------------------------|
 G -15-15-15-15-14-14-14-14-12-12-12-12-14----12----|
 D -------------------------------------------------|
 A -------------------------------------------------|
 E -------------------------------------------------|

pm (entire measure)
[E5]  
 
 E -------------------|-------------------------------------|
 B ----------------15^|(17)-hb--(17)-(17)-15^(17)-15^(17)---|
 G -----12------------|-------------------------------------|
 D -/14----14-14------|-------------------------------------|
 A -------------------|-------------------------------------|
 E -------------------|-------------------------------------|

[G5]  
 
 E ----------------------------|----------------------------|
 B ----------------------------|-13p11----------------------|
 G -14^s-12--14-12----------12-|-------12-12-12--10----2^(4)|
 D ----------------------------|----------------------------|
 A ----------------------------|----------------------------|
 E ----------------------------|----------------------------|

[E5]  
 
 E -----------------0----------|----------------------------|
 B ----------------------------|----------------------------|
 G r2======^(4)---------2---0--|--------------------7---9\--|
 D ----------------------------|-2=====--------/9-----------|
 A ----------------------------|----------------------------|
 E ----------------------------|----------------------------|

[C5]  
 
 E ----------------------------|----------------------------|
 B ----------------------------|----------------------------|
 G ---------5------------5-----|---------5------------5-----|
 D ---------5------------5-----|---------5------------5-----|
 A -3-3-3-3------3-3-3-3-------|-3-3-3-3------3-3-3-3-------|
 E ----------------------------|----------------------------|
 pm------| pm------| pm------| pm------|

[B5]  
 
 E ----------------------------|----------------------------|
 B ----------------------------|----------------------------|
 G ---------4------------4-----|-14=^(16)-------------------|
 D ---------4------------4-----|-14=^(16)-----------------2=|
 A -2-2-2-2------2-2-2-2-------|--------------------------2=|
 E ----------------------------|--------------------------0=|
 pm------| pm------|

[E5]  
 
 E ------------------|----------------|------------------|----------------|
 B ------------------|----------------|------------------|----------------|
 G ------------------|----------------|------------------|----------------|
 D =-----------------|---------------2|=-----------------|---------------2|
 A =-----------------|---------------2|=-----------------|---------------2|
 E =-0-3^q-0-3^q-0--0|-3^q-0-3^q-0---0|=-0-3^q-0-3^q-0--0|-3^q-0-3^q-0---0|

[E5]  
 
 E ------------------|----------------|------------------|----------------|
 B ------------------|----------------|------------------|----------------|
 G ------------------|----------------|------------------|----------------|
 D =-------------2---|-----------2---2|=-----------------|----------------|
 A =-----------------|---------------2|=-----------------|----------------|
 E =-0-3^q-0-3------0|-3^q-0-3-------0|=-0-3^q-0-3^q-0--0|3^q-0-3^q-0--3-0|

CHORUS:
[E5]  
 
 E ----------------|----------------|--------------------|----------------|
 B ----------------|----------------|--------------------|----------------|
 G ----7/9-9-------|----7/9-9-------|--------------------|-----7-9--------|
 D ----7/9-9-------|----7/9-9-------|--------------------|-----7-9--------|3x
 A ----5/7-7-------|----5/7-7-------|--------------------|-----5-7--------|
 E =------------3-0|=------------3-0|=--0-3^q-0-3^q-0--0-|-3-0---------3-0|

All day All night, Well,all right
(All day!) (All night!)
[E5]  
 
 E ----------------|----------------|--------------------|----------------|
 B ----------------|----------------|--------------------|----------------|
 G ----7/9-9-------|----7/9-9-------|--------------------|-2^wr-0-2^w-----|
 D ----7/9-9-------|----7/9-9-------|------------------2-|----------------|
 A ----5/7-7-------|----5/7-7-------|--------------------|----------------|
 E =------------3-0|=------------3-0|=--0-3^q-0-3^q-0----|----------------|

All day All night Well,all right
(All day!) (All night!)
OUTRO:
 
 E --------------0--|---0-----0-------|---------------0--|----------------|
 B -----------------|-----------------|------------------|----------------|
 G -----------------|2^w---2^w--2^w===|==--hb------------|(4)r2-0---------|
 D -----------------|-----------------|------------------|--------2~------|
 A -----------------|-----------------|------------------|----------------|
 E -----------------|-----------------|------------------|----------------|

Hey hey Hey
 
 E -----------------|-----------------|------------------|----------------|
 B -----------------|-----------------|------------------|--12-12/15~--15=|
 G --/7-7-7-7^q---7^|q=---7-9~--------|--12-12-----12-14^|w---------------|
 D -------------9---|---9-------------|--12-12--14-------|----------------|
 A -----------------|-----------------|------------------|----------------|
 E -----------------|-----------------|------------------|----------------|

hey Hey hey Hey
 
 E -----------------|---------------15|^w----------------|-15-------------|
 B /17-17-17-17--15/|17-17-17-17-17---|--------------15^w|----15^-15^-15^-|
 G -----------------|-----------------|------------------|----------------|
 D -----------------|-----------------|------------------|----------------|
 A -----------------|-----------------|------------------|----------------|
 E -----------------|-----------------|------------------|----------------|

hey Hey hey
(fade)
*This rhythm line is played along with the guitar solo in the Outro:
 
 E|-----------------|-----------------|-----------------|-----------------|
 B|-----------------|-----------------|-----------------|-----------------|
 G|-----------------|-----------------|-----------------|-----------------|
 D|=----------------|--------------2-2|=----------------|--------------2-2|
 A|=----------------|--------------2-2|=----------------|--------------2-2|
 E|=-0-3^q-0-3^q-0-0|-3^q-0-3^q-0--0-0|=-0-3^q-0-3^q-0-0|-3^q-0-3^q-0--0-0|
 -----------------------------------------------------------------------------

^....bend (q=quarter,s=semi,w=whole) /...slide up
r....release bend \...slide down
p....pulloff =...hold note
hb...hold bend ..pinch harmonic
pm...palm mute ~...vibrato
(This file is the transcriber's own work and represents
their interpretation of the song.)

Important: The song above is NOT stored on the Chordie server. The original song is hosted at www.guitaretab.com. Chordie works as a search engine and provides on-the-fly formatting. Chordie does not index songs against artists'/composers' will. To remove this song please click here.

Text color:
Chord color:
Chord grids: 
Font size:    
Page size: 

A A5 B5 C5 D E5 G5
Rate #2 of 3 versions

Login - add to songbook

SHARE PAGE  




You need to log in to post comments