Guitar Tabs, Chords and Lyrics
Server problems seems to be fixed. Chordie has been experiencing problems with songs disappearing. These issues now seems to be fixed, but still verifying the fix. If you find anything strange, please email admin@chordie.com.


Zodiac  God Is an Astronaut

Zodiac by God is an astronaut
Tempo= 180 BPM
Overall structure at end of tab
PART A
Intro and main guitar riff with chords above and measures:
| Cm | % | % | % |
 
 e--------------------------------------------------------------------------------------------|
 b-----11--11--11--11--11-h13---13---13---13------11--11--11--11--11-h13---13---13---13-------|
 g--------------------------------------------------------------------------------------------|
 d--------------------------------------------------------------------------------------------|
 a--------------------------------------------------------------------------------------------|
 e--------------------------------------------------------------------------------------------|

| Gm | Fm | Gm | Eb |
 
 e---------------------------------------------------------------------------------------|
 b---------------------------------------------------------------------------------------|
 g----12--12--12--12--12--p10---10---10---10-----12--12--12--12--12--S8-----8----8----8--|
 d---------------------------------------------------------------------------------------|
 a---------------------------------------------------------------------------------------|
 e---------------------------------------------------------------------------------------|

| Cm | % | % | % |
 
 e---------------------------------------------------------------------------------------|
 b-----11--11--11--11--11-h13---13---13---13------11--11--11--11--11-h13---13---13---13--|
 g---------------------------------------------------------------------------------------|
 d---------------------------------------------------------------------------------------|
 a---------------------------------------------------------------------------------------|
 e---------------------------------------------------------------------------------------|

| Ab | Gm | Bb | Fm Eb |
 
 e--------------------------------------------------------------------------------------------|
 b--------------------------------------------------------------------------------------------|
 g----13--13--13--13--13--p12---12---12---12------15--15--15--15--15-S10---10---10---10-------|
 d--------------------------------------------------------------------------------------------|
 a--------------------------------------------------------------------------------------------|
 e--------------------------------------------------------------------------------------------|

Chords aren't realy played, by the guitar, but I thought they might come in handy.
PART B
The second chord progression is:
| Cm | Cm | Ab | Ab | Fm | Fm | Ab | Ab |
Over which arpeggios are played, I can't really make out exactly how this guy plays these,
but the following sounds about right and is sort of playable while running around on stage.
| Cm | Cm | Ab | Ab |
 
 e-------------6------------------------6-----------------------------------------------------|
 b---------4--------4--------------4--------4--------------6-----4---------------6----4-------|
 g----5------------------------5----------------------5----------------------5----------------|
 d-----------------------------------------------6-----------------------6--------------------|
 a--------------------------------------------------------------------------------------------|
 e--------------------------------------------------------------------------------------------|

| Fm | Fm | Ab | Ab |
 
 e--------------------------------------------------------------------------------------------|
 b-------------6----4------------------6---4----------------6----4-----------------6-----4----|
 g--------5------------------------5------------------5------------------------5--------------|
 d----3-----------------------3-------------------6-----------------------6-------------------|
 a--------------------------------------------------------------------------------------------|
 e--------------------------------------------------------------------------------------------|

Part B variation
| Cm | Cm | Ab | Ab |
 
 e-------------------------------8------6-----------------------------------------------------|
 b--------------------------------------------------------------------------6------4----------|
 g--------------------------------------------------------------------------------------------|
 d--------------------------------------------------------------------------------------------|
 a--------------------------------------------------------------------------------------------|
 e--------------------------------------------------------------------------------------------|

| Fm | Fm | Ab | Ab |
 
 e--------------------------------6------8----------------------------------------------------|
 b--------------------------------------------------------------------------------------------|
 g------------------------------------------------------------------------8-----7-----5-------|
 d--------------------------------------------------------------------------------------------|
 a--------------------------------------------------------------------------------------------|
 e--------------------------------------------------------------------------------------------|

PART C:
| Cm | Cm | Bb | Fm |
| Cm | Gm | Ab | Dm |
just the chords with a hard downstroke on every beat
Part C variation
| Cm | Cm | Bb | Eb Dm |
 
 e--------------------------------------------------------------------------------------------|
 b-8-h9--8-h9--8-h9--8-h9--------------------------8-h9--8-h9--8-h9--8-h9---------------------|
 g--------------------------7-h8--7-h8--5-h7--5-h7-----------------------7-h8--7-h8--5-h7--5--|h7
 d--------------------------------------------------------------------------------------------|
 a--------------------------------------------------------------------------------------------|
 e--------------------------------------------------------------------------------------------|

| Cm | Cm | Bb | Eb Fm |
 
 e--------------------------------------------------------------------------------------------|
 b-8-h9--8-h9--8-h9--8-h9--------------------------8-h9--8-h9--8-h9--8-h9---------------------|
 g--------------------------7-h8--7-h8--5-h7--5-h7-----------------------7-h8--7-h8--5-h7--5--|h7
 d--------------------------------------------------------------------------------------------|
 a--------------------------------------------------------------------------------------------|
 e--------------------------------------------------------------------------------------------|

PART D:
| Ab | Ab | Fm | Fm |
 
 e-------------------------------------------------------------------------6------8-----------|
 b--------------------------------8------6----------------------------------------------------|
 g--------------------------------------------------------------------------------------------|
 d--------------------------------------------------------------------------------------------|
 a--------------------------------------------------------------------------------------------|
 e--------------------------------------------------------------------------------------------|

| Ab | Ab | Fm | Fm |
 
 e-------------------------------------------------------------------------6------8-----------|
 b--------------------------------8------6----------------------------------------------------|
 g--------------------------------------------------------------------------------------------|
 d--------------------------------------------------------------------------------------------|
 a--------------------------------------------------------------------------------------------|
 e--------------------------------------------------------------------------------------------|

| Ab | Ab |
 
 e---------------------------------------------|
 b---------------------------------------------|
 g---------------------------8-----7-----5-----|
 d---------------------------------------------|
 a---------------------------------------------|
 e---------------------------------------------|

PART E:
| Eb | % | Dm | % | Bb | % | Cm | % |
| Eb | % | Dm | % | Fm | % | Cm | % |
Long sustained notes are played over this, one every 2 measures:
(drummer starts playing half-time)
 
 e---------------------------------------------|
 b---------------------------------------------|
 g---8---7--------------8----7-----10----------|
 d-----------8----10--------------------10-----|
 a---------------------------------------------|
 e---------------------------------------------|

So the overall structure of the song is then:
[A]A drums and bass come in
B x4
[A]Bx2
B variation x2
C x2
C Variation x2
Break down 16 measures,
some nice synths over this, haven't got time to figure out what is played.
Just listen to the song, shouldn't be to hard
C Variation
[D]  
[E]E with Fm | Gm | Eb | as ending...
enjoy! jananton@gmail.com

Important: The song above is NOT stored on the Chordie server. The original song is hosted at www.guitaretab.com. Chordie works as a search engine and provides on-the-fly formatting. Chordie does not index songs against artists'/composers' will. To remove this song please click here.

Text color:
Chord color:
Chord grids: 
Font size:    
Page size: 

A D E
Rate #1 of 2 versions

Jango Player

Login - add to songbook

SHARE PAGE  




You need to log in to post comments