Guitar Tabs, Chords and Lyrics
Server problems seems to be fixed. Chordie has been experiencing problems with songs disappearing. These issues now seems to be fixed, but still verifying the fix. If you find anything strange, please email admin@chordie.com.


Fallen Soldier  God or Julie

I noticed no one really had tabbed out any God Or Julie songs so I decided to do it,
do the other songs some day, need to get the new album too.
The song is played in standard tuning as far as I know, EADGBe.
And just a sidenote:
The A chord is actually an A with an E as bass tone, but I don't exactly know which
it is.
Verse:
[Dm]I found out it's [B]over [C]I'm a fallen [F]sol[A]dier
[Dm]Lost in all the [B]madness [C]trampled by the [F]last [A]kiss
[Dm]Woke up with the [B]first tear [C]watching as the [F]smoke [A]cleared
[Dm]Leave me where you [B]found me the [C]world falling [F]around [A]me
Chorus:
[B]Wave goodbye [Dm]watch it die [C]I'll pretend I [F]knew [A]it
[B]Honestly [Dm]I believe [C]heading out and [F]through [A]it
Verse:
[Dm]Stood untill the [B]last day [C]waiting for the [F]life [A]change
[Dm]If the fight is [B]over [C]forget just what I [F]told [A]you
[Dm]Thought that we could [B]pull through but [C]I already [F]lost [A]you
[Dm]Leave me where you [B]found me the [C]world falling [F]around [A]me
Chorus:
[B]Wave goodbye [Dm]watch it die [C]I'll pretend I [F]knew [A]it
[B]Honestly [Dm]watching me [C]heading out and [F]through [A]it
[B]You look down [Dm]why should I [C]life has nothing [F]to [A]it
[B]Honestly [Dm]I believe [C]heading out and [F]through [A]it
Solo:
Chords: Dm Bb C F A (x4)
 
 e|--------------------------|---5---5--------5---5---------|
 B|------5-6-6-6-6-6-5-5-6-6-|-3---3---3----3---3---3---3---|
 G|7-7-7---------------------|-----------5------------5---2-|
 D|--------------------------|------------------------------|
 A|--------------------------|------------------------------|
 E|--------------------------|------------------------------|
 e|--------------------------|---5---5------5-5-3-3---------|
 B|------5-6-6-6-6-6-5-5-6-6-|-3---3---3------------6-6-5-5-|
 G|7-7-7---------------------|-----------5------------------|
 D|--------------------------|------------------------------|
 A|--------------------------|------------------------------|
 E|--------------------------|------------------------------|

Chorus:
[Bb]Wave goodbye [Dm]watch it die [C]I'll pretend I [F]knew [A]it
[Bb]Honestly [Dm]I believe [C]heading out and [F]through [A]it
[Bb]You look down [Dm]why should I [C]life has nothing [F]to [A]it
[Bb]Honestly [Dm]I believe [C]heading out and [F]through [A]it
Heading out and through it (x4) Repeat Chorus Bb Dm C F A

Important: The song above is NOT stored on the Chordie server. The original song is hosted at www.guitaretab.com. Chordie works as a search engine and provides on-the-fly formatting. Chordie does not index songs against artists'/composers' will. To remove this song please click here.

Text color:
Chord color:
Chord grids: 
Font size:    
Page size: 

A B Bb C Dm F
Rate #0 of 1 versions

Jango Player

Login - add to songbook

SHARE PAGE  



You need to log in to post comments