Guitar Tabs, Chords and Lyrics
Major upgrade!! After one year development the new version of Chordie is now online! Please give feedback.


Forgive Me  Godsmack

Gtr I (C G C F A D) - 'Tony Rombola'
Gtr II (C G C F A D) - 'Tony Rombola'
Intro
Q=70
[D5E5] [D5E5] [D5] [E5] [D5E5] 
[4/4] Gtr I
H Q E E +Q Q Q E E
 
 |------------------------0-|--(0)------------------------|
 |--------------------------|-----------------------6-(6)-|
 |---------------------10---|-(10)---------------------9--|
 |--------------------------|-----------------------------|
 |--------------------------|-----------------------------|
 |--------------------------|-----------------------------|

|
| Gtr II
 
 | PM--| PM--| PM--| PM--|

| S S S S E S S S S E Q S S S S E S S S S E Q
 
 |--------------------------|-----------------------------|
 |--------------------------|-----------------------------|
 |--------------------------|-----------------------------|
 |---2----------------------|-----2-----------------------|
 |-0h2-2-2-2-0h2-2-2-2------|---0h2-2-2-2-0h2-2-2-2-------|
 |-0h2-2-2-2-0h2-2-2-2------|---0h2-2-2-2-0h2-2-2-2-------|

[D5E5]Q Q [D5E5] Q E E [D5] +Q [E5] Q [D5E5] H
 
 |-0----------------------0-|--(0)---------------------||
 |--------------------------|--------------------------||
 |---------------------10---|-(10)---------------------||
 |--------------------------|--------------------------||
 |--------------------------|--------------------------||
 |--------------------------|--------------------------||

|
 
 | PM--| PM--| PM--| PM--|

| S S S S E S S S S E Q S S S S E S S S S E Q
 
 |--------------------------|--------------------------||
 |--------------------------|--------------------------||
 |--------------------------|--------------------------||
 |---2----------------------|-----2--------------------||
 |-0h2-2-2-2-0h2-2-2-2------|---0h2-2-2-2-0h2-2-2-2----||
 |-0h2-2-2-2-0h2-2-2-2------|---0h2-2-2-2-0h2-2-2-2----||

Verse
[D5E5]H [D5E5] Q E E [D5] +Q [E5] Q [D5E5] H
 
 ||-------------------------0-|--(0)----------------------|
 ||o--------------------------|---------------------------|
 ||----------------------10---|-(10)----------------------|
 ||---------------------------|---------------------------|
 ||o--------------------------|---------------------------|
 ||---------------------------|---------------------------|

|
 
 | PM--| PM--| PM--| PM--|

| S S S S E S S S S E Q S S S S E S S S S E Q
 
 ||---------------------------|---------------------------|
 ||o--------------------------|---------------------------|
 ||---------------------------|---------------------------|
 ||----2----------------------|-----2---------------------|
 ||o-0h2-2-2-2-0h2-2-2-2------|---0h2-2-2-2-0h2-2-2-2-----|
 ||--0h2-2-2-2-0h2-2-2-2------|---0h2-2-2-2-0h2-2-2-2-----|

[D5E5]H [D5E5] Q E E [D5] +Q [E5] Q [D5E5] H
 
 |------------------------0-|--(0)---------------------|
 |--------------------------|--------------------------|
 |---------------------10---|-(10)---------------------|
 |--------------------------|--------------------------|
 |--------------------------|--------------------------|
 |--------------------------|--------------------------|

|
 
 | PM--| PM--| PM--| PM--|

| S S S S E S S S S E Q S S S S E S S S S E Q
 
 |--------------------------|--------------------------|
 |--------------------------|--------------------------|
 |--------------------------|--------------------------|
 |---2----------------------|-----2--------------------|
 |-0h2-2-2-2-0h2-2-2-2------|---0h2-2-2-2-0h2-2-2-2----|
 |-0h2-2-2-2-0h2-2-2-2------|---0h2-2-2-2-0h2-2-2-2----|

[D5E5]H [D5E5] Q E E [D5] +Q [E5] Q [D5E5] H
 
 |------------------------0-|--(0)---------------------|
 |--------------------------|--------------------------|
 |---------------------10---|-(10)---------------------|
 |--------------------------|--------------------------|
 |--------------------------|--------------------------|
 |--------------------------|--------------------------|

|
 
 | PM--| PM--| PM--| PM--|

| S S S S E S S S S E Q S S S S E S S S S E Q
 
 |--------------------------|--------------------------|
 |--------------------------|--------------------------|
 |--------------------------|--------------------------|
 |---2----------------------|-----2--------------------|
 |-0h2-2-2-2-0h2-2-2-2------|---0h2-2-2-2-0h2-2-2-2----|
 |-0h2-2-2-2-0h2-2-2-2------|---0h2-2-2-2-0h2-2-2-2----|

[D5E5]H [D5E5] Q E E [D5] +E [E5] E E [D5E5]E E E [D5E5]E E
 
 |------------------------0-|--(0)-------------0--------------||
 |--------------------------|--------6-----6-------6-----6----||
 |---------------------10---|-(10)-------9-----------9--------||
 |--------------------------|---------------------------------||
 |--------------------------|---------------------------------||
 |--------------------------|---------------------------------||

|
| PM--| PM--|
| S S S S E S S S S E Q S S S S E S S S S E S S S S
 
 |--------------------------|---------------------------------||
 |--------------------------|---------------------------------||
 |--------------------------|---------------------------------||
 |---2----------------------|---------------------------------||
 |-0h2-2-2-2-0h2-2-2-2------|---0--2-2-2-2-0-2-2-2-2-0-2-2-2--||
 |-0h2-2-2-2-0h2-2-2-2------|---0--2-2-2-2-0-2-2-2-2-0-2-2-2--||

Chorus
[D5]Gtr[Eb] II[D] [D5] [F5] [Eb5] [D5] [Eb] [D] [D5] [F5] [Eb5]
Q E S S +E S S S S S S Q S S S S +E S S S S S S
 
 |---------------------------|-----------------------------|
 |---------------------------|-----------------------------|
 |----/8-8-7-(7)-------------|----/8-8-8-7-(7)-------------|
 |-----x-x-x-----------------|-----x-x-x-x-----------------|
 |-0--/6-6-5-(5)-0-0-3-3-1-1-|-0--/6-6-6-5-(5)-0-0-3-3-1-1-|
 |-0-------------0-0-3-3-1-1-|-0---------------0-0-3-3-1-1-|

[D5]Q [Eb] E S [D]S +E [D5]S S [F5]S S [Eb5]S S [D5]Q [Eb] S S S [D]S +E [D5]S S [F5]S S [Eb5]S S
 
 |---------------------------|-----------------------------|
 |---------------------------|-----------------------------|
 |----/8-8-7-(7)-------------|----/8-8-8-7-(7)-------------|
 |-----x-x-x-----------------|-----x-x-x-x-----------------|
 |-0--/6-6-5-(5)-0-0-3-3-1-1-|-0--/6-6-6-5-(5)-0-0-3-3-1-1-|
 |-0-------------0-0-3-3-1-1-|-0---------------0-0-3-3-1-1-|

1.
[D5E5]Gtr I[D5E5] [D5] [E5] [D5E5]
H Q E E +Q Q Q E E
 
 |------------------------0-|--(0)---------------------0-|
 |--------------------------|----------------------------|
 |---------------------10---|-(10)------------------10---|
 |--------------------------|----------------------------|
 |--------------------------|----------------------------|
 |--------------------------|----------------------------|

|
| Gtr II
 
 | PM--| PM--| PM--| PM--|

| S S S S E S S S S E Q S S S S E S S S S E Q
 
 |--------------------------|----------------------------|
 |--------------------------|----------------------------|
 |--------------------------|----------------------------|
 |---2----------------------|-----2----------------------|
 |-0h2-2-2-2-0h2-2-2-2------|---0h2-2-2-2-0h2-2-2-2------|
 |-0h2-2-2-2-0h2-2-2-2------|---0h2-2-2-2-0h2-2-2-2------|

[D5] +Q [E5] Q [D5E5] Q E E [D5] +Q [E5] Q [D5E5] H
 
 |--(0)---------------------0-|--(0)----------------------||
 |----------------------------|--------------------------o||
 |-(10)------------------10---|-(10)----------------------||
 |----------------------------|---------------------------||
 |----------------------------|--------------------------o||
 |----------------------------|---------------------------||

|
 
 | PM--| PM--| PM--| PM--|

| S S S S E S S S S E Q S S S S E S S S S E Q
 
 |----------------------------|---------------------------||
 |----------------------------|--------------------------o||
 |----------------------------|---------------------------||
 |-----2----------------------|-----2---------------------||
 |---0h2-2-2-2-0h2-2-2-2------|---0h2-2-2-2-0h2-2-2-2----o||
 |---0h2-2-2-2-0h2-2-2-2------|---0h2-2-2-2-0h2-2-2-2-----||

2.
[E5]Gtr I[F]I[E] [E5] [G5] [F5] [E5] [F] [E] [E5] [G5] [F5]
E. S E S S +S S S S S S S S E. S S S S S +S S S S S S S S
 
 |---------------------------------|------------------------------------|
 |---------------------------------|------------------------------------|
 |------/10-10-9-(9)---------------|------/10-10-10-9-(9)---------------|
 |--------x--x-x-------------------|--------x--x--x-x-------------------|
 |-2-----/8--8-7-(7)-2-2-2-5-5-3-3-|-2-----/8--8--8-7-(7)---2-2-5-5-3---|
 |-2--0--------------2-2-2-5-5-3-3-|-2--0-----------------2-2-2-5-5-3-0-|

[D5]Q [Eb] E S [D]S +E [D5]S S [F5]S S [Eb5]S S [D5]Q [Eb] S S S [D]S +E [D5]S S [F5]S S [Eb5]S S
 
 |---------------------------|-----------------------------|
 |---------------------------|-----------------------------|
 |----/8-8-7-(7)-------------|----/8-8-8-7-(7)-------------|
 |-----x-x-x-----------------|-----x-x-x-x-----------------|
 |-0--/6-6-5-(5)-0-0-3-3-1-1-|-0--/6-6-6-5-(5)-0-0-3-3-1-1-|
 |-0-------------0-0-3-3-1-1-|-0---------------0-0-3-3-1-1-|

[D5Eb5]Gtr I[D5Eb5] [D5] [Eb5] [D5Eb5]
H Q E E +Q Q Q E E
 
 |------------------------0-|--(0)---------------------0-|
 |--------------------------|----------------------------|
 |---------------------10---|-(10)------------------10---|
 |--------------------------|----------------------------|
 |--------------------------|----------------------------|
 |--------------------------|----------------------------|

|
| Gtr II
 
 | PM--| PM--| PM--| PM--|

| S S S S E S S S S E Q S S S S E S S S S E Q
 
 |--------------------------|----------------------------|
 |--------------------------|----------------------------|
 |--------------------------|----------------------------|
 |---2----------------------|-----2----------------------|
 |-0h2-2-2-2-0h2-2-2-2------|---0h2-2-2-2-0h2-2-2-2------|
 |-0h2-2-2-2-0h2-2-2-2------|---0h2-2-2-2-0h2-2-2-2------|

[D5] +Q [E5] Q [D5E5] Q E E [D5] +E [E5] E E [D5E5]E E E [D5E5]E E
 
 |--(0)---------------------0-|--(0)-------------0---------------|
 |----------------------------|--------6-----6-------6-------6---|
 |-(10)------------------10---|-(10)-------9-------------9-------|
 |----------------------------|----------------------------------|
 |----------------------------|----------------------------------|
 |----------------------------|----------------------------------|

|
| PM--| PM--|
| S S S S E S S S S E Q S S S S E S S S S S S S S S S
 
 |----------------------------|----------------------------------|
 |----------------------------|----------------------------------|
 |----------------------------|----------------------------------|
 |-----2----------------------|----------------------------------|
 |---0h2-2-2-2-0h2-2-2-2------|---0--2-2-2-2-0-2-2-2-2-2-0-2-2-2-|
 |---0h2-2-2-2-0h2-2-2-2------|---0--2-2-2-2-0-2-2-2-2-2-0-2-2-2-|

[D5]Gtr[Eb] II[D] [D5] [F5] [Eb5] [D5] [Eb] [D] [D5] [F5] [Eb5]
Q E S S +E S S S S S S Q S S S S +E S S S S S S
 
 |---------------------------|-----------------------------|
 |---------------------------|-----------------------------|
 |----/8-8-7-(7)-------------|----/8-8-8-7-(7)-------------|
 |-----x-x-x-----------------|-----x-x-x-x-----------------|
 |-0--/6-6-5-(5)-0-0-3-3-1-1-|-0--/6-6-6-5-(5)-0-0-3-3-1-1-|
 |-0-------------0-0-3-3-1-1-|-0---------------0-0-3-3-1-1-|

[D5]Q [Eb] E S [D]S +E [D5]S S [F5]S S [Eb5]S S [D5]Q [Eb] S S S [D]S +E [D5]S S [F5]S S [Eb5]S S
 
 |---------------------------|-----------------------------|
 |---------------------------|-----------------------------|
 |----/8-8-7-(7)-------------|----/8-8-8-7-(7)-------------|
 |-----x-x-x-----------------|-----x-x-x-x-----------------|
 |-0--/6-6-5-(5)-0-0-3-3-1-1-|-0--/6-6-6-5-(5)-0-0-3-3-1-1-|
 |-0-------------0-0-3-3-1-1-|-0---------------0-0-3-3-1-1-|

[E5]E. S [F] E S [E]S +S [E5]S S S [G5]S S [F5]S S [E5]E. S [F] S S S [E]S +S [E5]S S S [G5]S S [F5]S S
 
 |---------------------------------|------------------------------------|
 |---------------------------------|------------------------------------|
 |------/10-10-9-(9)---------------|------/10-10-10-9-(9)---------------|
 |--------x--x-x-------------------|--------x--x--x-x-------------------|
 |-2-----/8--8-7-(7)-2-2-2-5-5-3-3-|-2-----/8--8--8-7-(7)-2-2-2-5-5-3-3-|
 |-2--0--------------2-2-2-5-5-3-3-|-2--0-----------------2-2-2-5-5-3-3-|

[D5]Q [Eb] E S [D]S +E [D5]S S [F5]S S [Eb5]S S [D5]W
 
 |---------------------------|------||
 |---------------------------|------||
 |----/8-8-7-(7)-------------|------||
 |-----x-x-x-----------------|------||
 |-0--/6-6-5-(5)-0-0-3-3-1-1-|-0----||
 |-0-------------0-0-3-3-1-1-|-0----||

Interlude
Q=90
[Eb5D5]E. S +S S [G#5]E +S [D5]E S [F5D5]E E [Eb5D5]E. S +S S [G#5]E +S [D5]E S S [F5D5]S E
 
 |--------------------------|----------------------------|
 |--------------------------|----------------------------|
 |--------------------------|----------------------------|
 |-8------------------------|-8--------------------------|
 |-6--0-(0)-0-6-(6)-0-0-3-0-|-6--0-(0)-0-6-(6)-0-0-0h3-0-|
 |----0-(0)-0-6-(6)-0-0-3-0-|----0-(0)-0-6-(6)-0-0-0h3-0-|

[Eb5D5]E. S +S S [G#5]E +S [D5]E S [F5D5]E E [Eb5D5]E. S +S S [G#5]E +S [D5]E S S [F5D5]S E
 
 |--------------------------|----------------------------||
 |--------------------------|----------------------------||
 |--------------------------|----------------------------||
 |-8------------------------|-8--------------------------||
 |-6--0-(0)-0-6-(6)-0-0-3-0-|-6--0-(0)-0-6-(6)-0-0-0h3-0-||
 |----0-(0)-0-6-(6)-0-0-3-0-|----0-(0)-0-6-(6)-0-0-0h3-0-||

Verse
Eb5VI D5 G#5 D5 F5 D5 Eb5VI D5 G#5 D5 F5D5
 
 PM--------------------------------------------------------------|

S S S S S S S S S S S S S S S S S S S S S S S S S S S S S S S S
 
 ||----------------------------------|----------------------------------|
 ||o---------------------------------|----------------------------------|
 ||----------------------------------|----------------------------------|
 ||--8-8-8---------------------------|-8-8-8----------------------------|
 ||o-6-6-6-0-0-0-6-6-6-0-0-0-3-3-0-0-|-6-6-6-0-0-0-6-6-6-0-0-0-0h3-0-0--|
 ||--------0-0-0-6-6-6-0-0-0-3-3-0-0-|-------0-0-0-6-6-6-0-0-0-0h3-0-0--|

Eb5VI D5 G#5 D5 F5 D5 Eb5VI D5 G#5 D5 F5D5
 
 PM--------------------------------------------------------------|

S S S S S S S S S S S S S S S S S S S S S S S S S S S S S S S S
 
 |---------------------------------|---------------------------------|
 |---------------------------------|---------------------------------|
 |---------------------------------|---------------------------------|
 |-8-8-8---------------------------|-8-8-8---------------------------|
 |-6-6-6-0-0-0-6-6-6-0-0-0-3-3-0-0-|-6-6-6-0-0-0-6-6-6-0-0-0-0h3-0-0-|
 |-------0-0-0-6-6-6-0-0-0-3-3-0-0-|-------0-0-0-6-6-6-0-0-0-0h3-0-0-|

1.
[Eb5D5]E. S +S S [G#5]E +S [D5]E S [F5D5]E E [Eb5D5]E. S +S S [G#5]E +S [D5]E S S [F5D5]S E
 
 |--------------------------|----------------------------|
 |--------------------------|----------------------------|
 |--------------------------|----------------------------|
 |-8------------------------|-8--------------------------|
 |-6--0-(0)-0-6-(6)-0-0-3-0-|-6--0-(0)-0-6-(6)-0-0-0h3-0-|
 |----0-(0)-0-6-(6)-0-0-3-0-|----0-(0)-0-6-(6)-0-0-0h3-0-|

[Eb5D5]E. S +S S [G#5]E +S [D5]E S [F5D5]E E [Eb5D5]E. S +S S [G#5]E +S [D5]E S S [F5D5]S E
 
 |--------------------------|-----------------------------||
 |--------------------------|----------------------------o||
 |--------------------------|-----------------------------||
 |-8------------------------|-8---------------------------||
 |-6--0-(0)-0-6-(6)-0-0-3-0-|-6--0-(0)-0-6-(6)-0-0-0h3-0-o||
 |----0-(0)-0-6-(6)-0-0-3-0-|----0-(0)-0-6-(6)-0-0-0h3-0--||

2.
\1[Eb5D5] [G#5] [D5] [F5D5] [Eb5D5] [G#5] [D5] [F5D5]
W E. S +S S E +S E S E E E. S +S S E +S E S S S E
 
 |-----------|--------------------------|-----------------------------||
 |-----------|--------------------------|-----------------------------||
 |-----------|--------------------------|-----------------------------||
 |-----------|-8------------------------|-8---------------------------||
 |-----------|-6--0-(0)-0-6-(6)-0-0-3-0-|-6--0-(0)-0-6-(6)-0-0-0h3-0--||
 |-0---------|----0-(0)-0-6-(6)-0-0-3-0-|----0-(0)-0-6-(6)-0-0-0h3-0--||

Outro
[Eb5D5]E. S +S S [G#5]E +S [D5]E S [F5D5]E E [Eb5D5]E. S +S S [G#5]E +S [D5]E S S [F5D5]S E
 
 |--------------------------|----------------------------|
 |--------------------------|----------------------------|
 |--------------------------|----------------------------|
 |-8------------------------|-8--------------------------|
 |-6--0-(0)-0-6-(6)-0-0-3-0-|-6--0-(0)-0-6-(6)-0-0-0h3-0-|
 |----0-(0)-0-6-(6)-0-0-3-0-|----0-(0)-0-6-(6)-0-0-0h3-0-|

S S S S S S S S S S S S S S S S S S S S S S S S S S S S S S S S
 
 ||----------------------------------|-----------------------------------||
 ||o---------------------------------|----------------------------------o||
 ||----------------------------------|-----------------------------------||
 ||--8-8-8---------------------------|-8-8-8-----------------------------||
 ||o-6-6-6-0-0-0-6-6-6-0-0-0-3-3-0-0-|-6-6-6-0-0-0-6-6-6-0-0-0-0h3-0-0--o||
 ||--------0-0-0-6-6-6-0-0-0-3-3-0-0-|-------0-0-0-6-6-6-0-0-0-0h3-0-0---||

[Eb5]W +H H
 
 |----------|-------------*|
 |----------|-------------*|
 |----------|-------------*|
 |----------|-------------*|
 |-1--------|-(1)---------*|
 |-1--------|-(1)---------*|
 --------------------------------------------------------------------------------

Duration Legend
 
 ---------------
 W - whole; H - half; Q - quarter; E - 8th; S - 16th; T - 32nd; X - 64th; a - acciaccatura

+ - note tied to previous; . - note dotted; .. - note double dotted
Uncapitalized letters represent notes that are staccato (1/2 duration)
Irregular groupings are notated above the duration line
Duration letters will always appear directly above the note/fret number it represents the
duration for. Duration letters with no fret number below them represent rests. Multi-
bar rests are notated in the form Wxn, where n is the number of bars to rest for. Low
melody durations appear below the staff
Tablature Legend
 
 ----------------

h - hammer-on
p - pull-off
b - bend
pb - pre-bend
r - bend release (if no number after the r, then release immediately)
/\ - slide into or out of (from/to "nowhere")
s - legato slide
S - shift slide
- natural harmonic
(n) - artificial harmonic
n(n) - tapped harmonic
~ - vibrato
tr - trill
T - tap
TP - trem. picking
PM - palm muting
\n/ - tremolo bar dip; n = amount to dip
\n - tremolo bar down
n/ - tremolo bar up
/n\ - tremolo bar inverted dip
= - hold bend; also acts as connecting device for hammers/pulls
- volume swell (louder/softer)
x - on rhythm slash represents muted slash
o - on rhythm slash represents single note slash
Misc Legend
 
 -----------

| - bar
|| - double bar
||o - repeat start
o|| - repeat end
*| - double bar (ending)
: - bar (freetime)
$ - Segno
& - Coda
Tempo markers - = BPM(8/16=s8/s16), where s8 = swing 8ths, s16 = swing 16ths

Important: The song above is NOT stored on the Chordie server. The original song is hosted at www.guitaretab.com. Chordie works as a search engine and provides on-the-fly formatting. Chordie does not index songs against artists'/composers' will. To remove this song please click here.

Text color:
Chord color:
Chord grids: 
Font size:    
Page size: 

D D5 E E5 Eb Eb5 F F5 G#5 G5
Rate #1 of 1 versions

Jango Player

Login - add to songbook

SHARE PAGE  




You need to log in to post comments