Guitar Tabs, Chords and Lyrics
Server problems seems to be fixed. Chordie has been experiencing problems with songs disappearing. These issues now seems to be fixed, but still verifying the fix. If you find anything strange, please email admin@chordie.com.


Wolf Down the Earth   Gojira

 
 -||---------------------------------------------------------------------------|
 -||---------------------------------------------------------------------------|
 -||---------------------------------------------------------------------------|
 -||---------------------------------------------------------------------------|
 -||-------------------------------5-5-5-5-5-5-5-5-5-5-4-4-4-4-4-2-2-2-4-4-4-4-|
 -||-0-0-0-0-0-3-3-3-3-3-2-2-2-2-2---------------------------------------------|
 ------------------------------------------------------------------------------|
 ------------------------------------------------------------------------------|
 ------------------------------------------------------------------------------|
 ------------------------------------------------------------------------------|
 -4-------------------------------5-5-5-5-5-7-7-7-7-7-9-9-9-10-10-10-9-9-9-----|
 ---0-0-0-0-0-3-3-3-3-3-2-2-2-2-2----------------------------------------------|
 ------------------------------------------------------------------------------|
 ------------------------------------------------------------------------------|
 ------------------------------------------------------------------------------|
 ------------------------------------------------------------------------------|
 -------------------------------5-5-5-5-5-5-5-5-5-5-5-4-4-4-4-4-2-2-2-4-4-4-4--|
 -0-0-0-0-0-3-3-3-3-3-2-2-2-2-2------------------------------------------------|
 -----------------------------------------------------------x/----------|------|
 -----------------------------------------------------------x/-------x2-|------|
 -----------------------------------------------------------x/----------|------|
 -----------------------------------------------------------x/----------|------|
 -4---------------------------------------------------------x/----------|------|
 ---0-0-0-0-0-3-3-3-3-3-3-2-2-2-2-2--3v--0--0--0--0--0--0---------------|------|
 AH - - - - - - A.H
 ------------------------------------------------------------------------------|
 ------------------------------------------------------------------------------|
 ------------------------------------------------------------------------------|
 ------------------------------------------------------------------------------|
 --------------------------------5-5-5-5-5-5-5-5-5-5-4-4-4-4-4-2-2-2-4-4-4-4---|
 --0-0-0-0-0-3-3-3-3-3-2-2-2-2-2-----------------------------------------------|
 ------------------------------------------------------------------------------|
 ------------------------------------------------------------------------------|
 ------------------------------------------------------------------------------|
 ------------------------------------------------------------------------------|
 -4-------------------------------5-5-5-5-5-7-7-7-7-7-9-9-9-10-10-10-9-9-9-----|
 ---0-0-0-0-0-3-3-3-3-3-2-2-2-2-2----------------------------------------------|
 ------------------------------------------------------------------------------|
 ------------------------------------------------------------------------------|
 ------------------------------------------------------------------------------|
 ------------------------------------------------------------------------------|
 -10-10-10-10-10--9-9-9-9-9--7-7-7-7-7--9-9-9-9-9-9-9-9--7-7-7-7-7--5-5-5-7-7--|
 ------------------------------------------------------------------------------|
 ----------------------------------------------------------------0-------------|
 ----------------------------------------------------------------0-------------|
 ----------------------------------------------------------------0-------------|
 ------------------------------------------------------------------------------|
 -7-7-7--------------------------------------------------------------0---------|
 ---------0-0-0-0-0-3-3-3-3-3-2-2-2-2-2--3b--0--0--0--0--0---0-------0--3-3-3--|

 


 A.H -


 


 

 
 ------------------------------------------------------------------------------|
 ------------------------------------------------------------------------------|
 ------------------------------------------------------------------------------|
 ------------------------------------------------------------------------------|
 ----------------5-5-5-5-5-5-5-5-5-5-4-4-4-4-4-2-2-2-4-4-4-4-4-----------------|
 -3-3-2-2-2-2-2------------------------------------------------0-0-0-0-0-3-3---|
 ------------------------------------------------------------------------------|
 ------------------------------------------------------------------------------|
 -----------------------------------------------------------12-12-12-12-12-11--|
 ------------------------------------------------------------------------------|
 -----------------5-5-5-5-5-7-7-7-7-7-9-9-9-10-10-10-9-9-9--10-10-10-10-10--9--|
 -3-3-3-2-2-2-2-2--------------------------------------------------------------|
 ------------------------------------------------------------------------------|
 ------------------------------------------------------------------------------|
 -11-11-11-11--9-9-9-9-9-11-11-11-11-11-11-11-11-11--9-9-9-9-9--7-7-7--9-9-9-9-|
 ------------------------------------------------------------------------------|
 --9--9--9--9--7-7-7-7-7--9--9--9--9--9--9--9--9--9--7-7-7-7-7--5-5-5--7-7-7-7-|
 ------------------------------------------------------------------------------|
 ----------------------------------------------------------0-----||------------|
 ----------------------------------------------------------0-----||------------|
 -9--------------------------------------------------------0-----||------------|
 ----------------------------------------------------------------||------------|
 -7--------------------------------------------------------------||------------|
 ----0-0-0-0-0-3-3-3-3-3-2-2-2-2-2--3b--0--0--0--0--0--0---------||------------|

 


 A.H


 


 

 
 -||------------------------------------------------------------------||-------|
 -||------------------------------------------------------------------||-------|
 -||------------------------------------------------------------------||-------|
 -||------------------------------------------------------------------||-------|
 -||--0------------------------0-------------0------------------------||-------|
 -||--0--3-3-3-3-3--2-2-2-2-2--0--3-3-3-3-3--0--2-2-2-2-2-2-2-2-2-2---||-------|

 


 [-] [-] [-] 


 

 
 ------------------------------------------------------------------------------|
 ------------------------------------------------------------------------------|
 ------------------------------------------------------------------------------|
 ------------------------------------------------------------------------------|
 --------------------------------5-5-5-5-5-5-5-5-5-5-4-4-4-4-4-2-2-2-4-4-4-4---|
 --0-0-0-0-0-3-3-3-3-3-2-2-2-2-2-----------------------------------------------|
 ------------------------------------------------------------------------------|
 ------------------------------------------------------------------------------|
 ------------------------------------------------------------------------------|
 ------------------------------------------------------------------------------|
 -4-------------------------------5-5-5-5-5-7-7-7-7-7-9-9-9-10-10-10-9-9-9-----|
 ---0-0-0-0-0-3-3-3-3-3-2-2-2-2-2----------------------------------------------|
 ------------------------------------------------------------------------------|
 ------------------------------------------------------------------------------|
 -12-12-12-12-12-1111111111--9-9-9-9-9-1111111111111111--9-9-9-9-9--7-7-7-9-9--|
 ------------------------------------------------------------------------------|
 -10-10-10-10-10--9-9-9-9-9--7-7-7-7-7--9-9-9-9-9-9-9-9--7-7-7-7-7--5-5-5-7-7--|
 ----------------------------------------------------------------x/------------|
 ----------------------------------------------------------------x/------------|
 -9-9-9----------------------------------------------------------x/------------|
 ----------------------------------------------------------------x/------------|
 -7-7-7----------------------------------------------------------x/------------|
 ---------0-0-0-0-0-3-3-3-3-3-2-2-2-2-2--3b--0--0--0--0--0---0-----------------|
 A.H - - - - - - A.H
 -||------------------------------------------------------------------||-------|
 -||------------------------------------------------------------------||-------|
 -||------------------------------------------------------------------||-------|
 -||------------------------------------------------------------------||-------|
 -||--0------------------------0-------------0------------------------||-------|
 -||--0--3-3-3-3-3--2-2-2-2-2--0--3-3-3-3-3--0--2-2-2-2-2-2-2-2-2-2---||-------|

 


 [-] [-] [-] 


 Guitar I


 

 
 -||--0----------0-----0--------------|--0----------0-----0-------0---------0--|
 -||--0----------0-----0--------------|--0----------0-----0-------0---------0--|
 -||--0----------0-----0--------------|--0----------0-----0-------0---------0--|
 -||----------------------------------|----------------------------------------|
 -||----------------------------------|----------------------------------------|
 -||-----2h3--2-----3-----2--2h3p2p0--|-----2h3--2-----3-----2--3----2h3--2----|
 ----0--------------|----------------------------------------------------------|
 ----0--------------|----------------------------------------------------------|
 ----0--------------|----------------------------------------------------------|
 -------------------|----------------------------------------------------------|
 -------------------|----------------------------------------------------------|
 -3-----2--2h3p2p0--|----------------------------------------------------------|

 


 


 Guitar II (Comes after)


 

 
 --0----------0-----0--------0----------0-----0------------|--------||---------|
 --0----------0-----0--------0----------0-----0------------|--------||---------|
 --0----------0-----0--------0----------0-----0------------|--------||---------|
 ----------------------------------------------------------|--------||---------|
 ----------------------------------------------------------|--------||---------|
 -----5h7--5-----7-----5--7-----5h7--5-----7-----5h7p5p3---|---5----||---------|
 -||---------------------------------------------------------------------------|
 -||---------------------------------------------------------------------------|
 -||---------------------------------------------------------------------------|
 -||------------0-0-0--------------------0-0-0-----0---------------2-2-2-------|
 -||------2-2-2--------2-----------2-2-2--------2------------2-2-2-------2-2-2-|
 -||3-3-3-----------------3--2-2-2--------------------0-0-0--------------------|
 - - - - - - - - - - - - - - - - - - - - - - - - - - - - - - - - - -
 -------------------------|----------------------------------------------------|
 ----------------------x2-|----------------------------------------------------|
 -------------------------|----------------------------------------------------|
 --4-4-4--------5/4/5/4---|--------------0-0-0-------------------0-0-0----0----|
 --------2-2-2--x-x-x-x---|--------2-2-2-------2-----------2-2-2--------2------|
 ---------------3/2/3/2---|--3-3-3----------------3--2-2-2---------------------|
 - - - - - - - - - - - - - - - - - - - - - - - - - - - -
 ------------------------------------------------|-----------------------------|
 ------------------------------------------------|-----------------------------|
 ------------------------------------------------|-----------------------------|
 --------------2-2-2-------4-4-4--------5p4p2p0--|--------------0-0-0----------|
 --------2-2-2-------2-2-2-------2-2-2-----------|--------2-2-2--------2-------|
 -0-0-0------------------------------------------|--3-3-3-----------------3----|
 - - - - - - - - - - - - - - - - - - - - - - - - - - - - -
 ------------------------------------------------------------------------------|
 ------------------------------------------------------------------------------|
 ------------------------------------------------------------------------------|
 -------------0-0-0-----0---------------2-2-2-------4-4-4---------5/4/5/4------|
 -------2-2-2--------2------------2-2-2-------2-2-2--------2-2-2--x-x-x-x------|
 -2-2-2--------------------0-0-0----------------------------------3/2/3/2------|
 - - - - - - - - - - - - - - - - - - - - - - - - - - - - -
 ------------------------------------------------------------------------------|
 ------------------------------------------------------------------------------|
 ------------------------------------------------------------------------------|
 -------------0-0-0-------------------0-0-0----0-------------------------------|
 -------2-2-2-------2-----------2-2-2-------2------------7-7-7-7-7-----7-7-7---|
 -3-3-3----------------3--2-2-2-------------------0-0-0-------------0----------|
 - - - - - - - - - - - - - - - - - - - - - - - - - -
 ----------------------------------||------------------------------------------|
 ----------------------------------||------------------------------------------|
 ----------------------------------||------------------------------------------|
 ----------------------------------||------------------------------------------|
 -7-7-----7-7-7-7-7-----7-7-7-7-7--||------------------------------------------|
 ------0-------------0-------------||------------------------------------------|

 


 [-] [-]  


 

 
 -||---------------------------------------------------------------------------|
 -||---------------------------------------------------------------------------|
 -||--9-9-9-9-9--7-7-7-7-7-7-7-7--5-5-5-5-5--4-4-4-4-4--7-7-7-7-7--9-9-9-9-9---|
 -||--x-x-x-x-x--x-x-x-x-x-x-x-x--x-x-x-x-x--x-x-x-x-x--x-x-x-x-x--x-x-x-x-x---|
 -||--7-7-7-7-7--5-5-5-5-5-5-5-5--3-3-3-3-3--2-2-2-2-2--5-5-5-5-5--7-7-7-7-7---|
 -||---------------------------------------------------------------------------|
 ------------------------------------------------------------------------------|
 ------------------------------------------------------------------------------|
 ------------------------------------------------9-9-9-9-9--7-7-7-7-7-7-7-7----|
 ------------------------------------------------x-x-x-x-x--x-x-x-x-x-x-x-x----|
 --2-2-2--2-2-2-----------0-0-0--0-0-0-----------7-7-7-7-7--5-5-5-5-5-5-5-5----|
 --3-3-3--3-3-3--5/3/5/3--2-2-2--2-2-2--3/2/3/2--------------------------------|
 - - - - - - - - - - - -
 ------------------------------------------------------------------------------|
 ------------------------------------------------------------------------------|
 -7-7-11-11-11-11-11-11-11-11-11--12-12-12-12-12-14-14-14-14-14----------------|
 -x-x--x--x--x--x--x--x--x--x--x---x--x--x--x--x--x--x--x--x--x----------------|
 -5-5--9--9--9--9--9--9--9--9--9--10-10-10-10-10-12-12-12-12-12--2-2-2--2-2-2--|
 ----------------------------------------------------------------3-3-3--3-3-3--|
 - - - - - -
 --------------------------------0---||----------------------------------------|
 --------------------------------0---||----------------------------------------|
 --------------------------------0---||----------------------------------------|
 ------------------------------------||----------------------------------------|
 ------------0-0-0--0-0-0------------||----------------------------------------|
 --5/3/5/3---2-2-2--2-2-2---3/2------||----------------------------------------|
 -||---------------------------------------------------------------------------|
 -||---------------------------------------------------------------------------|
 -||---------------------------------------------------------------------------|
 -||------------0-0-0--------------------0-0-0-----0---------------2-2-2-------|
 -||------2-2-2--------2-----------2-2-2--------2------------2-2-2-------2-2-2-|
 -||3-3-3-----------------3--2-2-2--------------------0-0-0--------------------|
 - - - - - - - - - - - - - - - - - - - - - - - - - - - - - - - - - -
 -------------------------|----------------------------------------------------|
 -------------------------|----------------------------------------------------|
 -------------------------|----------------------------------------------------|
 --4-4-4--------5/4/5/4---|--------------0-0-0-------------------0-0-0----0----|
 --------2-2-2--x-x-x-x---|--------2-2-2-------2-----------2-2-2--------2------|
 ---------------3/2/3/2---|--3-3-3----------------3--2-2-2---------------------|
 - - - - - - - - - - - - - - - - - - - - - - - - - - - -
 ------------------------------------------------|-----------------------------|
 ------------------------------------------------|-----------------------------|
 ------------------------------------------------|-----------------------------|
 --------------2-2-2-------4-4-4--------5p4p2p0--|--------------0-0-0----------|
 --------2-2-2-------2-2-2-------2-2-2-----------|--------2-2-2--------2-------|
 -0-0-0------------------------------------------|--3-3-3-----------------3----|
 - - - - - - - - - - - - - - - - - - - - - - - - - - - - -
 ------------------------------------------------------------------------------|
 ------------------------------------------------------------------------------|
 ------------------------------------------------------------------------------|
 -------------0-0-0-----0---------------2-2-2-------4-4-4---------5/4/5/4------|
 -------2-2-2--------2------------2-2-2-------2-2-2--------2-2-2--x-x-x-x------|
 -2-2-2--------------------0-0-0----------------------------------3/2/3/2------|
 - - - - - - - - - - - - - - - - - - - - - - - - - - - - -
 ------------------------------------------------------------------------------|
 ------------------------------------------------------------------------------|
 ------------------------------------------------------------------------------|
 -------------0-0-0-------------------0-0-0----0-------------------------------|
 -------2-2-2-------2-----------2-2-2-------2------------7-7-7-7-7-----7-7-7---|
 -3-3-3----------------3--2-2-2-------------------0-0-0-------------0----------|
 - - - - - - - - - - - - - - - - - - - - - - - - - -
 ----------------------------------||------------------------------------------|
 ----------------------------------||------------------------------------------|
 ----------------------------------||------------------------------------------|
 ----------------------------------||------------------------------------------|
 -7-7-----7-7-7-7-7-----7-7-7-7-7--||------------------------------------------|
 ------0-------------0-------------||------------------------------------------|

 


 [-] [-]  


 

 
 -||---------------------------------------------------------------------------|
 -||---------------------------------------------------------------------------|
 -||--9-9-9-9-9--7-7-7-7-7-7-7-7--5-5-5-5-5--4-4-4-4-4--7-7-7-7-7--9-9-9-9-9---|
 -||--x-x-x-x-x--x-x-x-x-x-x-x-x--x-x-x-x-x--x-x-x-x-x--x-x-x-x-x--x-x-x-x-x---|
 -||--7-7-7-7-7--5-5-5-5-5-5-5-5--3-3-3-3-3--2-2-2-2-2--5-5-5-5-5--7-7-7-7-7---|
 -||---------------------------------------------------------------------------|
 ------------------------------------------------------------------------------|
 ------------------------------------------------------------------------------|
 ------------------------------------------------9-9-9-9-9--7-7-7-7-7-7-7-7----|
 ------------------------------------------------x-x-x-x-x--x-x-x-x-x-x-x-x----|
 --2-2-2--2-2-2-----------0-0-0--0-0-0-----------7-7-7-7-7--5-5-5-5-5-5-5-5----|
 --3-3-3--3-3-3--5/3/5/3--2-2-2--2-2-2--3/2/3/2--------------------------------|
 - - - - - - - - - - - -
 ------------------------------------------------------------------------------|
 ------------------------------------------------------------------------------|
 -7-7-11-11-11-11-11-11-11-11-11--12-12-12-12-12-14-14-14-14-14----------------|
 -x-x--x--x--x--x--x--x--x--x--x---x--x--x--x--x--x--x--x--x--x----------------|
 -5-5--9--9--9--9--9--9--9--9--9--10-10-10-10-10-12-12-12-12-12--2-2-2--2-2-2--|
 ----------------------------------------------------------------3-3-3--3-3-3--|
 - - - - - -
 ------------------------------------||----------------------------------------|
 ------------------------------------||----------------------------------------|
 ------------------------------------||----------------------------------------|
 ------------------------------------||----------------------------------------|
 ------------0-0-0--0-0-0------------||----------------------------------------|
 --5/3/5/3---2-2-2--2-2-2---3/2/3/2--||----------------------------------------|
 -||---------------------------------------------------------------------------|
 -||---------------------------------------------------------------------------|
 -||--9-9-9-9-9--7-7-7-7-7-7-7-7--5-5-5-5-5--4-4-4-4-4--7-7-7-7-7--9-9-9-9-9---|
 -||--x-x-x-x-x--x-x-x-x-x-x-x-x--x-x-x-x-x--x-x-x-x-x--x-x-x-x-x--x-x-x-x-x---|
 -||--7-7-7-7-7--5-5-5-5-5-5-5-5--3-3-3-3-3--2-2-2-2-2--5-5-5-5-5--7-7-7-7-7---|
 -||---------------------------------------------------------------------------|
 ------------------------------------------------------------------------------|
 ------------------------------------------------------------------------------|
 ------------------------------------------------9-9-9-9-9--7-7-7-7-7-7-7-7----|
 ------------------------------------------------x-x-x-x-x--x-x-x-x-x-x-x-x----|
 --2-2-2--2-2-2-----------0-0-0--0-0-0-----------7-7-7-7-7--5-5-5-5-5-5-5-5----|
 --3-3-3--3-3-3--5/3/5/3--2-2-2--2-2-2--3/2/3/2--------------------------------|
 - - - - - - - - - - - -
 ------------------------------------------------------------------------------|
 ------------------------------------------------------------------------------|
 -7-7-11-11-11-11-11-11-11-11-11--12-12-12-12-14-14-14-16-16-16----------------|
 -x-x--x--x--x--x--x--x--x--x--x---x--x--x--x--x--x--x--x--x--x----------------|
 -5-5--9--9--9--9--9--9--9--9--9--10-10-10-10-12-12-12-14-14-14--2-2-2--2-2-2--|
 ----------------------------------------------------------------3-3-3--3-3-3--|
 - - - - - -
 ------------------------------------||----------------------------------------|
 ------------------------------------||----------------------------------------|
 ------------------------------------||----------------------------------------|
 ------------------------------------||----------------------------------------|
 ------------0-0-0--0-0-0------------||----------------------------------------|
 --5/3/5/3---2-2-2--2-2-2---3/2/3/2--||----------------------------------------|

 


 


 Guitar I


 

 
 -||--0----------0-----0--------------|--0----------0-----0-------0---------0--|
 -||--0----------0-----0--------------|--0----------0-----0-------0---------0--|
 -||--0----------0-----0--------------|--0----------0-----0-------0---------0--|
 -||----------------------------------|----------------------------------------|
 -||----------------------------------|----------------------------------------|
 -||-----2h3--2-----3-----2--2h3p2p0--|-----2h3--2-----3-----2--3----2h3--2----|
 ----0--------------|----------------------------------------------------------|
 ----0--------------|----------------------------------------------------------|
 ----0--------------|----------------------------------------------------------|
 -------------------|----------------------------------------------------------|
 -------------------|----------------------------------------------------------|
 -3-----2--2h3p2p0--|----------------------------------------------------------|

 


 


 Guitar II (Comes after)


 

 
 --0----------0-----0--------0----------0-----0--------------|---------||------|
 --0----------0-----0--------0----------0-----0--------------|---------||------|
 --0----------0-----0--------0----------0-----0--------------|---------||------|
 ------------------------------------------------------------|---------||------|
 ------------------------------------------------------------|---------||------|
 -----5h7--5-----7-----5--7-----5h7--5-----7-----5-5h7p5p3---|---2---3-||------|


Important: The song above is NOT stored on the Chordie server. The original song is hosted at www.guitaretab.com. Chordie works as a search engine and provides on-the-fly formatting. Chordie does not index songs against artists'/composers' will. To remove this song please click here.

This song is displayed as text-only. Transposing and tuning is only available for chordpro-songs.
Rate #1 of 4 versions

Login - add to songbook

SHARE PAGE  



You need to log in to post comments