Guitar Tabs, Chords and Lyrics
Server problems seems to be fixed. Chordie has been experiencing problems with songs disappearing. These issues now seems to be fixed, but still verifying the fix. If you find anything strange, please email admin@chordie.com.


The Way of All Flesh   Gojira

 
 -||---------------------------------------------------0---------------------|
 -||---------------------------------------------------0------x3-------------|
 -||---------------------------------------------------0---------------------|
 -||-------------------------------------------------------------------------|
 -||-------------------------------------------------------------------------|
 -||--0-0-0--1-1-1--3-3-3--0-0-0--3-3-3--2-2-2--1-1-1--3---------------------|
 - - - - - - - - - - - - - - - - - - - - -
 ---------------------------------------------------------------------------|-|
 ---------------------------------------------------------------------------|-|
 ---------------------------------------------------------------------------|-|
 ---------------------------------------------------------------------------|-|
 -----------------------------------3brbr-----------------------------------|-|
 ------0-0-0--1-1-1--3-3-3--0-0-0-------------------------------------------|-|
 - - - - - - - - - - - - A.H
 -||---------------------------------------------------0--------------------|-|
 -||---------------------------------------------------0--------------------|-|
 -||---------------------------------------------------0--------------------|-|
 -||------------------------------------------------------------------------|-|
 -||------------------------------------------------------------------------|-|
 -||--0-0-0--1-1-1--3-3-3--0-0-0--3-3-3--2-2-2--1-1-1--3--------------------|-|
 - - - - - - - - - - - - - - - - - - - - -
 -||---------------------------------------------------------------------------|
 -||---------------------------------------------------------------------------|
 -||---------------------------------------------------------------------------|
 -||---------------------------------------------------------------------------|
 -||---------------------------------------------------------------------------|
 -||-0--1--3--0--3--2--1--3--0--1--3--0--3--2--1--3--0--1--3--0--3--2--1--3----|
 - - - - - - - - - - - - - - - - - - - - - - - -
 ---------------------------------------------------------------------------|-|
 ---------------------------------------------------------------------------|-|
 ---------------------------------------------------------------------------|-|
 ---------------------------------------------------------------------------|-|
 ---------------------------------------------------------------------------|-|
 -0--1--3--0---3-3-3-3-3-3--------------------------------------------------|-|

 


 [-] [-] [-] [-]  


 


 

 
 -||---------------------------------------------------0--------------------|-|
 -||---------------------------------------------------0--------------------|-|
 -||---------------------------------------------------0--------------------|-|
 -||------------------------------------------------------------------------|-|
 -||------------------------------------------------------------------------|-|
 -||--0-0-0--1-1-1--3-3-3--0-0-0--3-3-3--2-2-2--1-1-1--3--------------------|-|
 - - - - - - - - - - - - - - - - - - - - -

 


 


 Guitar I


 

 
 -||---------------------------------------------------------------------------|
 -||---------------------------------------------------------------------------|
 -||---------------------------------------------------------------------------|
 -||---------------------------------------------------------------------------|
 -||---------------------------------------------------------------------------|
 -||-5p3-5p3-5p3-5p3-5p3-5p3-5p3-5p3-5p3-5p3-5p3-5p3-5p3-5p3-5p3-5p3-5p3-5p3---|

 


 (Don't use the pick)


 


 

 
 -------------------------------------------------------------------------|----|
 -------------------------------------------------------------------------|----|
 -------------------------------------------------------------------------|----|
 -------------------------------------------------------------------------|----|
 -------------------------------------------------------------------------|----|
 ---5p2-5p2-5p2-5p2-5p2-5p2-5p2-5p2-5p2-5p2-5p2-5p2-5p2-5p2-5p2-5p2-5p2---|----|

 


 


 Guitar II


 

 
 ---------------------------------------------------------------------------|-|
 ---------------------------------------------------------------------------|-|
 ---------------------------------------------------------------------------|-|
 ---------------------------------------------------------------------------|-|
 ---------------------------------------------------------------------------|-|
 -----3-------3---5---7---5---2---------------------------------------------|-|
 ------------------------------------------------------------------------------|
 ------------------------------------------------------------------------------|
 ------------------------------------------------------------------------------|
 ------------------------------------------------------------------------------|
 ------------------------------------------------------------------------------|
 ---0--1--3--0--3--2--1--3--0--1--3--0--3--2--1--3--0--1--3--0--3--2--1--3--0--|
 - - - - - - - - - - - - - - - - - - - - - - - - -
 ---------------------------------------------------------------------------|--|
 ---------------------------------------------------------------------------|--|
 ---------------------------------------------------------------------------|--|
 ---------------------------------------------------------------------------|--|
 ---------------------------------------------------------------------------|--|
 --1--3--0--3-3-3-3-3-3----------------------------------------------------|---|

 


 [-] [-] [-]  


 


 

 
 -||--------------------------------------------------------------------------|
 -||--------------------------------------------------------------------------|
 -||--------------------------------------------------------------------------|
 -||--------------------------------------------------------------------------|
 -||--------------------------------------------------------------------------|
 -||--0--2--3--0--3--3--3--2--2--2--2--2--2--2--2--2--------------------------|
 - - - - - - - - - - - - - - - -
 -----------------------------------------------------------------------------|
 -----------------------------------------------------------------------------|
 -----------------------------------------------------------------------------|
 -----------------------------------------------------------------------------|
 -----------------------------------------------------------------------------|
 -----0--2--3--0---3---3--3--3--3--3--3--3--3--3------------------------------|
 - - - - - - - - - - - - -
 --------------------------------0-----------0---------------------------------|
 --------------------------------0-----------0---------------------------------|
 --------------------------------0-----------0---------------------------------|
 ------------------------------------------------------------------------------|
 ------------------------------------------------------------------------------|
 ----3----3----3----3--3----5----0-----0-----0----0--0----3----3----3----3--3--|
 -------0---------0-----------------------------------------------------------|
 -------0---------0-----------------------------------------------------------|
 -------0---------0-----------------------------------------------------------|
 -----------------------------------------------------------------------------|
 -----------------------------------------------------------------------------|
 --0----0----0----0----0--0---------------------------------------------------|
 -----------------------------------------------------------------------------|
 -----------------------------------------------------------------------------|
 -----------------------------------------------------------------------------|
 -----------------------------------------------------------------------------|
 -----------------------------------------------------------------------------|
 -----0--2--3--0--3--3--3--2--2--2--2--2--2--2--2--2--------------------------|
 - - - - - - - - - - - - - - - -
 ---------------------------------------------------------------------------|-|
 ---------------------------------------------------------------------------|-|
 ---------------------------------------------------------------------------|-|
 ---------------------------------------------------------------------------|-|
 ---------------------------------------------------------------------------|-|
 -----0--2--3--0---3---3--3--3--3--3--3--3--3--3----------------------------|-|
 - - - - - - - - - - - - -

 


 


 Guitar I


 

 
 -||---------------------------------------------------------------------------|
 -||---------------------------------------------------------------------------|
 -||---------------------------------------------------------------------------|
 -||---------------------------------------------------------------------------|
 -||---------------------------------------------------------------------------|
 -||-5p3-5p3-5p3-5p3-5p3-5p3-5p3-5p3-5p3-5p3-5p3-5p3-5p3-5p3-5p3-5p3-5p3-5p3---|
 -------------------------------------------------------------------------|----|
 -------------------------------------------------------------------------|----|
 -------------------------------------------------------------------------|----|
 -------------------------------------------------------------------------|----|
 -------------------------------------------------------------------------|----|
 ---5p2-5p2-5p2-5p2-5p2-5p2-5p2-5p2-5p2-5p2-5p2-5p2-5p2-5p2-5p2-5p2-5p2---|----|

 


 


 Guitar II (play twice)


 

 
 ---------------------------------------------------------------------------|-|
 ---------------------------------------------------------------------------|-|
 ---------------------------------------------------------------------------|-|
 ---------------------------------------------------------------------------|-|
 ---------------------------------------------------------------------------|-|
 -----3-------3---5---7---5---2---------------------------------------------|-|

 


 


 Guitar I & Guitar II


 

 
 ------------------------------------------------------------------------------|
 ------------------------------------------------------------------------------|
 ------------------------------------------------------------------------------|
 ------------------------------------------------------------------------------|
 ------------------------------------------------------------------------------|
 ----5p3-5p3-5p3-5p3-5p3-5p3-5p3-5p3-5p3-5p3-5p3-5p3-5p3-5p3-5p3-5p3-5p3-5p3---|
 -------------------------------------------------------------------------|----|
 -------------------------------------------------------------------------|----|
 -------------------------------------------------------------------------|----|
 -------------------------------------------------------------------------|----|
 -------------------------------------------------------------------------|----|
 ---5p2-5p2-5p2-5p2-5p2-5p2-5p2-5p2-5p2-5p2-5p2-5p2-5p2-5p2-5p2-5p2-5p2---|----|

 


 


 (guitar comes at the end)


 

 
 ------------------------------------------------------------------------------|
 ------------------------------------------------------------------------------|
 ------------------------------------------------------------------------------|
 --t15p3-t15p3-t15p3-t15p3-t15p3-t15p3-t15p3-t15p3-t15p3-t15p3-t15p3-t15p3-----|
 ------------------------------------------------------------------------------|
 ------------------------------------------------------------------------------|
 ---------------------------------------------------------------------------|-|
 ---------------------------------------------------------------------------|-|
 ---------------------------------------------------------------------------|-|
 --t17p2-t17p2-t17p2-t17p2-t17p2-t17p2-t17p2-t17p2-t17p2-t17p2-t17p2-t17p2--|-|
 ---------------------------------------------------------------------------|-|
 ---------------------------------------------------------------------------|-|
 -||------------------------------------------------------------------------|-|
 -||------------------------------------------------------------------------|-|
 -||-----------------------------------------------x2-----------------------|-|
 -||------------------------------------------------------------------------|-|
 -||------------------------------------------------------------------------|-|
 -||--3--------3---5---7---5---2--------------------------------------------|-|


Important: The song above is NOT stored on the Chordie server. The original song is hosted at www.guitaretab.com. Chordie works as a search engine and provides on-the-fly formatting. Chordie does not index songs against artists'/composers' will. To remove this song please click here.

This song is displayed as text-only. Transposing and tuning is only available for chordpro-songs.
Rate #1 of 2 versions

Login - add to songbook

SHARE PAGE  



You need to log in to post comments