Guitar Tabs, Chords and Lyrics
Server problems seems to be fixed. Chordie has been experiencing problems with songs disappearing. These issues now seems to be fixed, but still verifying the fix. If you find anything strange, please email admin@chordie.com.


Dawn  Gojira

As recorded by Gojira
(From the 2005 Album THE LINK)
Transcribed by Metal Prather
Music by Gojira
Arranged by Gojira
Gtr I (D G C F A D) - 'Untitled'
Gtr II (D G C F A D) - 'Untitled'
Gtr III (D G C F A D) - 'Untitled'
Gtr IV (D G C F A D) - 'Untitled'
Q=143
[3/4] Gtr I[4/4]
W W W E E E E E E E E
 
 |--------|--------|----------|-----------------||
 |--------|--------|----------|-----------------||
 |--------|--------|----------|-----------------||
 |--------|--------|----------|-----------------||
 |--------|--------|----------|-4-4-5-4-4-4-7-4-||
 |--------|--------|----------|-----------------||

[E] [E] [E] [E] [E] [E] [E] [E] [E] [E] [E] [E] [E] [E] [E] [E] [E] [E] [E] [E] [E] [E] [E] [E]  
 
 |-----------------|-----------------|-----------------|
 |-----------------|-----------------|-----------------|
 |-----------------|-----------------|-----------------|
 |-----------------|-----------------|-----------------|
 |-4-4-5-4-4-4-7-4-|-4-4-5-4-4-4-7-4-|-4-4-5-4-4-4-7-4-|
 |-----------------|-----------------|-----------------|

Q=143
$
[E] [E] [E] [E] [E] [E] [E] [E] [E] [E] [E] [E] [E] [E] [E] [E] [E] [E] [E] [E] [E] [E] [E] [E] [E] [E] [E] [E] [E] [E] [E] [E]  
 
 |-----------------|-----------------|-----------------|-----------------|
 |-----------------|-----------------|-----------------|-----------------|
 |-----------------|-----------------|-----------------|-----------------|
 |-----------------|-----------------|-----------------|-----------------|
 |-4-4-5-4-4-4-7-4-|-4-4-5-4-4-4-7-4-|-4-4-5-4-4-4-7-4-|-4-4-5-4-4-4-7-4-|
 |-----------------|-----------------|-----------------|-----------------|

Gtr II
Q. Q. Q +W
 
 ||--------------------|-------------------|
 ||o-------------------|-------------------|
 ||--6-----------------|-------------------|
 ||---------6------7---|-(7)---------------|
 ||o-4-----------------|-------------------|
 ||---------4------5---|-(5)---------------|

|
| Gtr I
| E E E E E E E E E E E E E E E E
 
 ||--------------------|-------------------|
 ||o-------------------|-------------------|
 ||--------------------|-------------------|
 ||--------------------|-------------------|
 ||o-4--4-5-4--4-4-7-4-|--4--4-5-4-4-4-7-4-|
 ||--------------------|-------------------|

+Q Q Q Q Q Q Q Q
 
 |-------------------|-------------------|
 |-------------------|-------------------|
 |-------------------|-------------------|
 |-(7)---6---7---9---|-11---9---7---9----|
 |-------------------|-------------------|
 |-(5)---4---5---7---|--9---7---5---7----|

|
| E E E E E E E E E E E E E E E E
 
 |-------------------|-------------------|
 |-------------------|-------------------|
 |-------------------|-------------------|
 |-------------------|-------------------|
 |--4--4-5-4-4-4-7-4-|--4-4-5-4-4-4-7-4--|
 |-------------------|-------------------|

W +W
 
 |-----------------|-------------------|
 |-----------------|-------------------|
 |-----------------|-------------------|
 |-6---------------|-(6)---------------|
 |-----------------|-------------------|
 |-4---------------|-(4)---------------|

|
| E E E E E E E E E E E E E E E E
 
 |-----------------|-------------------|
 |-----------------|-------------------|
 |-----------------|-------------------|
 |-----------------|-------------------|
 |-4-4-5-4-4-4-7-4-|--4--4-5-4-4-4-7-4-|
 |-----------------|-------------------|

To Coda
+W +W
 
 |-------------------|--------------------||
 |-------------------|-------------------o||
 |-------------------|--------------------||
 |-(6)---------------|-(6)----------------||
 |-------------------|-------------------o||
 |-(4)---------------|-(4)----------------||

|
| E E E E E E E E E E E E E E E E
 
 |-------------------|--------------------||
 |-------------------|-------------------o||
 |-------------------|--------------------||
 |-------------------|--------------------||
 |--4--4-5-4-4-4-7-4-|--4--4-5-4-4-4-7-4-o||
 |-------------------|--------------------||

Q. Q. Q +W +Q Q Q Q Q Q Q Q
 
 |-------------------|-------------------|-------------------|------------------|
 |-------------------|-------------------|-------------------|------------------|
 |-6-----------------|-------------------|-------------------|------------------|
 |--------6------7---|-(7)---------------|-(7)---6---7---9---|-11---9---7---9---|
 |-4-----------------|-------------------|-------------------|------------------|
 |--------4------5---|-(5)---------------|-(5)---4---5---7---|--9---7---5---7---|

|
| E E E E E E E E E E E E E E E E E E E E E E E E E E E E E E E E
 
 |-------------------|-------------------|-------------------|------------------|
 |-------------------|-------------------|-------------------|------------------|
 |-------------------|-------------------|-------------------|------------------|
 |-------------------|-------------------|-------------------|------------------|
 |-4--4-5-4--4-4-7-4-|--4--4-5-4-4-4-7-4-|--4--4-5-4-4-4-7-4-|--4-4-5-4-4-4-7-4-|
 |-------------------|-------------------|-------------------|------------------|

+W W +W +W
 
 |-------------------|-----------------|-------------------|-------------------|
 |-------------------|-----------------|-------------------|-------------------|
 |-------------------|-----------------|-------------------|-------------------|
 |-(9)---------------|-6---------------|-(6)---------------|-(6)---------------|
 |-------------------|-----------------|-------------------|-------------------|
 |-(7)---------------|-4---------------|-(4)---------------|-(4)---------------|

|
| E E E E E E E E E E E E E E E E E E E E E E E E E E E E E E E E
 
 |-------------------|-----------------|-------------------|-------------------|
 |-------------------|-----------------|-------------------|-------------------|
 |-------------------|-----------------|-------------------|-------------------|
 |-------------------|-----------------|-------------------|-------------------|
 |--4--4-5-4-4-4-7-4-|-4-4-5-4-4-4-7-4-|--4--4-5-4-4-4-7-4-|--4--4-5-4-4-4-7-4-|
 |-------------------|-----------------|-------------------|-------------------|

Gtr II
Q. Q. Q +W +Q Q Q Q Q Q Q Q
 
 |-------------------|-------------------|-------------------|------------------|
 |-------------------|-------------------|-------------------|------------------|
 |-6-----------------|-------------------|-------------------|------------------|
 |--------6------7---|-(7)---------------|-(7)---6---7---9---|-11---9---7---9---|
 |-4-----------------|-------------------|-------------------|------------------|
 |--------4------5---|-(5)---------------|-(5)---4---5---7---|--9---7---5---7---|

|
| Gtr I
| E E E E E E E E E E E E E E E E E E E E E E E E E E E E E E E E
 
 |-------------------|-------------------|-------------------|------------------|
 |-------------------|-------------------|-------------------|------------------|
 |-------------------|-------------------|-------------------|------------------|
 |-------------------|-------------------|-------------------|------------------|
 |-4--4-5-4--4-4-7-4-|--4--4-5-4-4-4-7-4-|--4--4-5-4-4-4-7-4-|--4-4-5-4-4-4-7-4-|
 |-------------------|-------------------|-------------------|------------------|

W +W +W +W
 
 |-----------------|-------------------|-------------------|-------------------|
 |-----------------|-------------------|-------------------|-------------------|
 |-----------------|-------------------|-------------------|-------------------|
 |-6---------------|-(6)---------------|-(6)---------------|-(6)---------------|
 |-----------------|-------------------|-------------------|-------------------|
 |-4---------------|-(4)---------------|-(4)---------------|-(4)---------------|

|
| E E E E E E E E E E E E E E E E E E E E E E E E E E E E E E E E
 
 |-----------------|-------------------|-------------------|-------------------|
 |-----------------|-------------------|-------------------|-------------------|
 |-----------------|-------------------|-------------------|-------------------|
 |-----------------|-------------------|-------------------|-------------------|
 |-4-4-5-4-4-4-7-4-|--4--4-5-4-4-4-7-4-|--4--4-5-4-4-4-7-4-|--4--4-5-4-4-4-7-4-|
 |-----------------|-------------------|-------------------|-------------------|

Q=152
&
Gtrs II, III
S S S S S S S S S S S S S S S S S S S S S S S S S S S S S S S S
 
 ||----------------------------------|----------------------------------|
 ||o---------------------------------|----------------------------------|
 ||----------------------------------|----------------------------------|
 ||------------------4-4-4-4---------|-----4-4---------4-4-4-4-4-4-4-4--|
 ||o---------------------------------|----------------------------------|
 ||--2-2-2-2-2-2-2-2---------2-2-2-2-|-2-2-----2-2-2-2------------------|

S S S S S S S S S S S S S S S S S S S S S S S S S S S S S S S S
 
 |---------------------------------|----------------------------------||
 |---------------------------------|---------------------------------o||
 |---------------------------------|----------------------------------||
 |-----------------6-6-6-6---------|-----6-6-6-6-6-6-6-6-6-6-6-6-6-6--||
 |---------------------------------|---------------------------------o||
 |-4-4-4-4-4-4-4-4---------4-4-4-4-|-4-4------------------------------||

Gtr III
S S S S S S S S S S S S S S S S S S S S S S S S S S S S S S S S
 
 ||----------------------------------|----------------------------------|
 ||o---------------------------------|----------------------------------|
 ||--2-2-2-2-2-2-2-2-2-2-2-2-2-2-2-2-|-2-2-2-2-2-2-2-2-2-2-2-2-2-2-2-2--|
 ||----------------------------------|----------------------------------|
 ||o---------------------------------|----------------------------------|
 ||----------------------------------|----------------------------------|

|
| Gtr II
| S S S S S S S S S S S S S S S S S S S S S S S S S S S S S S S S
 
 ||----------------------------------|----------------------------------|
 ||o---------------------------------|----------------------------------|
 ||----------------------------------|----------------------------------|
 ||------------------4-4-4-4---------|-----4-4---------4-4-4-4-4-4-4-4--|
 ||o---------------------------------|----------------------------------|
 ||--2-2-2-2-2-2-2-2---------2-2-2-2-|-2-2-----2-2-2-2------------------|

D.S. al Coda
S S S S S S S S S S S S S S S S S S S S S S S S S S S S S S S S
 
 |---------------------------------|----------------------------------||
 |---------------------------------|---------------------------------o||
 |-1-1-1-1-1-1-1-1-1-1-1-1-1-1-1-1-|-1-1-1-1-1-1-1-1-1-1-1-1-1-1-1-1--||
 |---------------------------------|----------------------------------||
 |---------------------------------|---------------------------------o||
 |---------------------------------|----------------------------------||

|
| S S S S S S S S S S S S S S S S S S S S S S S S S S S S S S S S
 
 |---------------------------------|----------------------------------||
 |---------------------------------|---------------------------------o||
 |---------------------------------|----------------------------------||
 |-----------------6-6-6-6---------|-----6-6-6-6-6-6-6-6-6-6-6-6-6-6--||
 |---------------------------------|---------------------------------o||
 |-4-4-4-4-4-4-4-4---------4-4-4-4-|-4-4------------------------------||

Q=143
Gtr I
[E] [E] [E] [E] [E] [E] [E] [E] [E] [E] [E] [E] [E] [E] [E] [E] [E] [E] [E] [E] [E] [E] [E] [E] [E] [E] [E] [E] [E] [E] [E] [E]  
 
 ||------------------|-----------------|-----------------|-------------------||
 ||o-----------------|-----------------|-----------------|------------------o||
 ||------------------|-----------------|-----------------|-------------------||
 ||------------------|-----------------|-----------------|-------------------||
 ||o-4-4-5-4-4-4-7-4-|-4-4-5-4-4-4-7-4-|-4-4-5-4-4-4-7-4-|-4-4-5-4-4-4-7-4--o||
 ||------------------|-----------------|-----------------|-------------------||

Q=143 H.=H
[E] [E] [E] [E] [E] [E] [E] [E] [E] [E] [E] [E] [E] [E] [E] [E] [E] [E] [E] [E] [E] [E] [E] [E] [E] [E] [E] [E] [E] [E] [E] [E]  
 
 |-----------------|-----------------|-----------------|-----------------|
 |-----------------|-----------------|-----------------|-----------------|
 |-----------------|-----------------|-----------------|-----------------|
 |-----------------|-----------------|-----------------|-----------------|
 |-4-4-5-4-4-4-7-4-|-4-4-5-4-4-4-7-4-|-4-4-5-4-4-4-7-4-|-4-4-5-4-4-4-7-4-|
 |-----------------|-----------------|-----------------|-----------------|

Q=90
[E] [E] [E] [E] [E] [E] [E] [E] [E] [E] [E] [E] [E] [E] [E] [E] [E] [E] [E] [E] [E] [E] [E] [E] [E] [E] [E] [E] [E] [E] [E] [E]  
 
 |-----------------|-----------------|-----------------|-----------------|
 |-----------------|-----------------|-----------------|-----------------|
 |-----------------|-----------------|-----------------|-----------------|
 |-----------------|-----------------|-----------------|-----------------|
 |-4-4-5-4-4-4-7-4-|-4-4-5-4-4-4-7-4-|-4-4-5-4-4-4-7-4-|-4-4-5-4-4-4-7-4-|
 |-----------------|-----------------|-----------------|-----------------|

Q H. Q H. Q H. Q H Q [2/4] Q Q
 
 |------------|------------|------------|------------|-------|
 |------------|------------|------------|------------|-------|
 |------------|------------|------------|------------|-------|
 |------------|------------|------------|------------|-------|
 |-2----------|-2----------|-2----------|-2-------5--|-2-----|
 |----2-------|----2-------|----2-------|----2-------|----2--|

Q=118
[3/4] Gtrs II, III
 
 |-3-| |-3-| |-3-| |-3-| |-3-|

S S S E S S S E Q S S S E S S S E S S S E 3x
 
 ||---------------------|--------------------------||
 ||o--------------------|-------------------------o||
 ||---------------------|--------------------------||
 ||---------------------|--------------------------||
 ||o-2-2-2--------------|-5-5-5---0-0-0---4-4-4---o||
 ||----------2-2-2------|--------------------------||
 |-3-| |-3-| |-3-| |-3-| |-3-|

S S S E S S S E Q q S S S S S S S S S E
 
 |--------------------|-------------------------|
 |--------------------|-------------------------|
 |--------------------|-------------------------|
 |--------------------|-------------------------|
 |-2-2-2--------------|-5--7-7-7-5-5-5-4-4-4----|
 |---------2-2-2------|-------------------------|

[3/4]  
 
 |-3-| |-3-| |-3-| |-3-| |-3-|

S S S E S S S E Q S S S E S S S E S S S E 3x
 
 ||---------------------|--------------------------||
 ||o--------------------|-------------------------o||
 ||---------------------|--------------------------||
 ||---------------------|--------------------------||
 ||o-2-2-2--------------|-5-5-5---0-0-0---4-4-4---o||
 ||----------2-2-2------|--------------------------||

|-3-| |-3-|
S S S E S S S E Q Q E. S E E
 
 |--------------------|--------------|
 |--------------------|--------------|
 |--------------------|--------------|
 |--------------------|--------------|
 |-2-2-2--------------|-5--7--5-4----|
 |---------2-2-2------|--------------|

[3/4]  
 
 |-3-| |-3-| |-3-| |-3-| |-3-|

S S S E S S S E Q S S S E S S S E S S S E 3x
 
 ||---------------------|--------------------------||
 ||o--------------------|-------------------------o||
 ||---------------------|--------------------------||
 ||---------------------|--------------------------||
 ||o-2-2-2--------------|-5-5-5---0-0-0---4-4-4---o||
 ||----------2-2-2------|--------------------------||
 |-3-| |-3-| |-3-| |-3-| |-3-|

S S S E S S S E Q a q S S S S S S S S S E
 
 |--------------------|--------------------------|
 |--------------------|--------------------------|
 |--------------------|--------------------------|
 |--------------------|--------------------------|
 |-2-2-2--------------|-4-5--7-7-7-5-5-5-4-4-4---|
 |---------2-2-2------|--------------------------|

[3/4]  
 
 |-3-| |-3-| |-3-| |-3-| |-3-|

S S S E S S S E Q S S S E S S S E S S S E 3x
 
 ||---------------------|--------------------------||
 ||o--------------------|-------------------------o||
 ||---------------------|--------------------------||
 ||---------------------|--------------------------||
 ||o-2-2-2--------------|-5-5-5---0-0-0---4-4-4---o||
 ||----------2-2-2------|--------------------------||

|-3-| |-3-|
S S S E S S S E Q Q E. S E E
 
 |--------------------|--------------|
 |--------------------|--------------|
 |--------------------|--------------|
 |--------------------|--------------|
 |-2-2-2--------------|-5--7--5-4----|
 |---------2-2-2------|--------------|
 |-3-| |-3-| |-3-| |-3-|

S S S E H S S S E S S S E S S S E
 
 |--------------|-------------------------|
 |--------------|-------------------------|
 |--------------|-------------------------|
 |---------4----|-------------------------|
 |-2-2-2--------|-5-5-5---0-0-0---4-4-4---|
 |---------2----|-------------------------|
 |-3-| |-3-| |-3-| |-3-|

S S S E H S S S E S S S E S S S E
 
 |--------------|--------------------------|
 |--------------|--------------------------|
 |--------------|--------------------------|
 |---------5----|--------------------------|
 |-2-2-2--------|-5-5-5---0-0-0---4-4-4----|
 |---------3----|--------------------------|
 |-3-| |-3-| |-3-| |-3-|

S S S E H S S S E S S S E S S S E
 
 |--------------|-------------------------|
 |--------------|-------------------------|
 |--------------|-------------------------|
 |---------7----|-------------------------|
 |-2-2-2--------|-5-5-5---0-0-0---4-4-4---|
 |---------5----|-------------------------|
 |-3-| |-3-| |-3-| |-3-|

S S S E H q S S S S S S S S S E
 
 |--------------|-------------------------|
 |--------------|-------------------------|
 |--------------|-------------------------|
 |---------5----|-------------------------|
 |-2-2-2--------|-5--7-7-7-5-5-5-4-4-4----|
 |---------3----|-------------------------|
 |-3-| |-3-| |-3-| |-3-|

S S S E H S S S E S S S E S S S E
 
 |--------------|-------------------------|
 |--------------|-------------------------|
 |--------------|-------------------------|
 |---------4----|-------------------------|
 |-2-2-2--------|-5-5-5---0-0-0---4-4-4---|
 |---------2----|-------------------------|
 |-3-| |-3-| |-3-| |-3-|

S S S E H S S S E S S S E S S S E
 
 |--------------|--------------------------|
 |--------------|--------------------------|
 |--------------|--------------------------|
 |---------5----|--------------------------|
 |-2-2-2--------|-5-5-5---0-0-0---4-4-4----|
 |---------3----|--------------------------|
 |-3-| |-3-| |-3-| |-3-| |-3-|

S S S E H S S S E S S S E S S S E S S S E H Q E. S E E
 
 |--------------|-------------------------|--------------|-------------|
 |--------------|-------------------------|--------------|-------------|
 |--------------|-------------------------|--------------|-------------|
 |---------7----|-------------------------|---------5----|-------------|
 |-2-2-2--------|-5-5-5---0-0-0---4-4-4---|-2-2-2--------|-5--7--5-4---|
 |---------5----|-------------------------|---------3----|-------------|

Gtrs II, III
 
 |-3-| |-3-| |-3-| |-3-| |-3-|

S S S E S S S E Q S S S E S S S E S S S E 3x
 
 ||---------------------|--------------------------||
 ||o--------------------|-------------------------o||
 ||---------------------|--------------------------||
 ||---------------------|--------------------------||
 ||o-2-2-2--------------|-5-5-5---0-0-0---4-4-4---o||
 ||----------2-2-2------|--------------------------||

|-3-| |-3-|
S S S E S S S E Q q E E E E
 
 |--------------------|---------------------|
 |--------------------|---------------------|
 |--------------------|---------------------|
 |--------------------|---------------------|
 |-2-2-2--------------|-5--7---5---4--------|
 |---------2-2-2------|---------------------|
 |-3-| |-3-| |-3-| |-3-|

S S S E H S S S E S S S E S S S E
 
 |--------------|-------------------------|
 |--------------|-------------------------|
 |--------------|-------------------------|
 |---------4----|-------------------------|
 |-2-2-2--------|-5-5-5---0-0-0---4-4-4---|
 |---------2----|-------------------------|
 |-3-| |-3-| |-3-| |-3-|

S S S E H S S S E S S S E S S S E
 
 |--------------|--------------------------|
 |--------------|--------------------------|
 |--------------|--------------------------|
 |---------5----|--------------------------|
 |-2-2-2--------|-5-5-5---0-0-0---4-4-4----|
 |---------3----|--------------------------|
 |-3-| |-3-| |-3-| |-3-| |-3-|

S S S E H S S S E S S S E S S S E S S S E H Q E. S E E
 
 |--------------|-------------------------|--------------|-------------|
 |--------------|-------------------------|--------------|-------------|
 |--------------|-------------------------|--------------|-------------|
 |---------7----|-------------------------|---------5----|-------------|
 |-2-2-2--------|-5-5-5---0-0-0---4-4-4---|-2-2-2--------|-5--7--5-4---|
 |---------5----|-------------------------|---------3----|-------------|

Gtrs II, III
 
 |-3-| |-3-| |-3-| |-3-| |-3-|

S S S E S S S E Q S S S E S S S E S S S E
 
 |--------------------|-------------------------|
 |--------------------|-------------------------|
 |--------------------|-------------------------|
 |--------------------|-------------------------|
 |-2-2-2--------------|-5-5-5---0-0-0---4-4-4---|
 |---------2-2-2------|-------------------------|

|
| Gtr IV
| W W
 
 |--------------------|-------------------------|
 |--------------------|-------------------------|
 |--------------------|-------------------------|
 |--------------------|-------------------------|
 |--------------------|-------------------------|
 |--------------------|-------------------------|
 |-3-| |-3-| |-3-| |-3-| |-3-|

S S S E S S S E Q S S S E S S S E S S S E
 
 |--------------------|-------------------------|
 |--------------------|-------------------------|
 |--------------------|-------------------------|
 |--------------------|-------------------------|
 |-2-2-2--------------|-5-5-5---0-0-0---4-4-4---|
 |---------2-2-2------|-------------------------|

|
| W W
 
 |--------------------|-------------------------|
 |--------------------|-------------------------|
 |--------------------|-------------------------|
 |--------------------|-------------------------|
 |--------------------|-------------------------|
 |--------------------|-------------------------|

Gtrs II, III
 
 |-3--| |-3-| |-3--| |-3-| |-3-|

S S S E S S S E Q S S S E S S S E S S S E
 
 |----------------------|---------------------------|
 |----------------------|---------------------------|
 |----------------------|---------------------------|
 |----------------------|---------------------------|
 |-2--2-2---------------|--5--5-5---0-0-0---4-4-4---|
 |----------2-2-2-------|---------------------------|

|
| Q. Q. +H.
 
 |----------------------|---------------------------|
 |----------------------|---------------------------|
 |----------------------|---------------------------|
 |----------------4-----|-(4)-----------------------|
 |----------------------|---------------------------|
 |----------------2-----|-(2)-----------------------|

|-3--| |-3-|
S S S E S S S E Q q E E E E
 
 |----------------------|-------------|
 |----------------------|-------------|
 |----------------------|-------------|
 |----------------------|-------------|
 |-2--2-2---------------|-5---7-5-4---|
 |----------2-2-2-------|-------------|

|
| Q. Q. H.
 
 |----------------------|-------------|
 |----------------------|-------------|
 |----------------------|-------------|
 |----------------4-----|-------------|
 |----------------------|-------------|
 |----------------2-----|-------------|
 |-3-| |-3--| |-3-| |-3-|

S S S E H S S S E S S S E S S S E
 
 ||---------------|---------------------------|
 ||o--------------|---------------------------|
 ||---------------|---------------------------|
 ||----------4----|---------------------------|
 ||o-2-2-2--------|--5--5-5---0-0-0---4-4-4---|
 ||----------2----|---------------------------|

|
| Q H +H.
 
 ||---------------|---------------------------|
 ||o--------------|---------------------------|
 ||---------------|---------------------------|
 ||----------4----|-(4)-----------------------|
 ||o--------------|---------------------------|
 ||----------2----|-(2)-----------------------|
 |-3--| |-3--| |-3-| |-3-|

S S S E H S S S E S S S E S S S E
 
 |---------------|---------------------------|
 |---------------|---------------------------|
 |---------------|---------------------------|
 |----------5----|---------------------------|
 |-2--2-2--------|--5--5-5---0-0-0---4-4-4---|
 |----------3----|---------------------------|

|
| H. +H.
 
 |---------------|---------------------------|
 |---------------|---------------------------|
 |---------------|---------------------------|
 |-5-------------|-(5)-----------------------|
 |---------------|---------------------------|
 |-3-------------|-(3)-----------------------|
 |-3--| |-3-| |-3-| |--3---|

S S S E H S S S E S S S E S S S E
 
 |---------------|------------------------------|
 |---------------|------------------------------|
 |---------------|------------------------------|
 |----------7----|------------------------------|
 |-2--2-2--------|-5-5-5---0-0-0---4----4-4-----|
 |----------5----|------------------------------|

|
| H. H E. S
 
 |---------------|------------------------------|
 |---------------|------------------------------|
 |---------------|------------------------------|
 |-7-------------|-----------------7b8========7-|
 |---------------|------------------------------|
 |-5-------------|-----------------5b6========5-|

|-3--|
S S S E H Q E. S E E 5x
 
 |-----------------|---------------||
 |-----------------|--------------o||
 |-----------------|---------------||
 |-----------5-----|---------------||
 |--2--2-2---------|-5--7--5-4----o||
 |-----------3-----|---------------||

|
| +Q Q Q H. 5x
 
 |-----------------|---------------||
 |-----------------|--------------o||
 |-----------------|---------------||
 |-(7)r======7--5--|---------------||
 |-----------------|--------------o||
 |-(5)r======5--3--|---------------||

Duration Legend
 
 ---------------
 W - whole; H - half; Q - quarter; E - 8th; S - 16th; T - 32nd; X - 64th; a - acciaccatura

+ - note tied to previous; . - note dotted; .. - note double dotted
Uncapitalized letters represent notes that are staccato (1/2 duration)
Irregular groupings are notated above the duration line
Duration letters will always appear directly above the note/fret number it represents the
duration for. Duration letters with no fret number below them represent rests. Multi-
bar rests are notated in the form Wxn, where n is the number of bars to rest for. Low
melody durations appear below the staff
Tablature Legend
 
 ----------------

h - hammer-on
p - pull-off
b - bend
pb - pre-bend
r - bend release (if no number after the r, then release immediately)
/\ - slide into or out of (from/to "nowhere")
s - legato slide
S - shift slide
- natural harmonic
(n) - artificial harmonic
n(n) - tapped harmonic
~ - vibrato
tr - trill
T - tap
TP - trem. picking
PM - palm muting
\n/ - tremolo bar dip; n = amount to dip
\n - tremolo bar down
n/ - tremolo bar up
/n\ - tremolo bar inverted dip
= - hold bend; also acts as connecting device for hammers/pulls
- volume swell (louder/softer)
x - on rhythm slash represents muted slash
o - on rhythm slash represents single note slash
Misc Legend
 
 -----------

| - bar
|| - double bar
||o - repeat start
o|| - repeat end
*| - double bar (ending)
: - bar (freetime)
$ - Segno
& - Coda
Tempo markers - = BPM(8/16=s8/s16), where s8 = swing 8ths, s16 = swing 16ths

Important: The song above is NOT stored on the Chordie server. The original song is hosted at www.guitaretab.com. Chordie works as a search engine and provides on-the-fly formatting. Chordie does not index songs against artists'/composers' will. To remove this song please click here.

Text color:
Chord color:
Chord grids: 
Font size:    
Page size: 

E
Rate #1 of 4 versions

Jango Player

Login - add to songbook

SHARE PAGE  



You need to log in to post comments